Log in

One click and you are in

Login with Facebook Login with Google

Why sign up and log in

Guitar Tabs Explorer
Lene Marlin tabs for Unforgivable sinner

Tabs

h = hammer on


Intro:
  A chord diagramE minorEm        A chord diagramC majorC            A chord diagramD MajorD  A chord diagramA minorAm
e-----------------------------------------------------
B-----------------------------------------------------
G----0---0-----------0--------------------------------
D------4---4--2--2-4---4----------0-------------------
A---------------------------3-2-3---3-2-0-------0-----
E-----------------------------------------3-3-3---3-2-


  A chord diagramE minorEm          A chord diagramC majorC            A chord diagramD MajorD A chord diagramA minorAm
e------------------------------
B------------------------------
G------0---0-----------0-------
D--------4---4--2--2-4---4-----
A------------------------------
E-0----------------------------


Verse 1:
| A chord diagramE minorEm | A chord diagramC majorC | A chord diagramD MajorD | A chord diagramG+G |

  A chord diagramA minorAm       A chord diagramD MajorD
e-------------------
B-------------------
G-----2--------0----
D---2------4-0------
A-0-----------------
E-------------------

| A chord diagramE minorEm | A chord diagramC majorC | A chord diagramD MajorD | A chord diagramG+G |

  A chord diagramA minorAm
e----------------------
B-------0----0h1-1-0---
G-2---2--------------2-
D---2-----2------------
A----------------------
E---------------------- x2

Chorus:

| A chord diagramE minorEm | A chord diagramC majorC | A chord diagramD MajorD | A chord diagramG+G | A chord diagramC majorC | A chord diagramD MajorD | A chord diagramG+G A chord diagramD MajorD | A chord diagramE minorEm | A chord diagramC majorC | A chord diagramD MajorD | D... |
| A chord diagramE minorEm | A chord diagramE minorEm |


Verse 2:

| A chord diagramE minorEm | A chord diagramC majorC | A chord diagramD MajorD | A chord diagramG+G | x2

  A chord diagramA minorAm
e----------------------
B-------0----0h1-1-0---
G-2---2--------------2-
D---2-----2------------
A----------------------
E---------------------- x2


Chorus 2:

| A chord diagramE minorEm | A chord diagramC majorC | A chord diagramD MajorD | A chord diagramG+G | A chord diagramC majorC | A chord diagramD MajorD | A chord diagramG+G A chord diagramD MajorD | A chord diagramE minorEm | A chord diagramC majorC | A chord diagramD MajorD | A chord diagramD MajorD |

Repeat intro.


Bridge:

  A chord diagramA minorAm                     A chord diagramE minorEm              A chord diagramD MajorD
e-----------------------------------------------------------
B-------0----0h1-1-0-------0-3---0---3-----------3------3---
G-2---2--------------2-----------------0-------0----------0-
D---2-----2--------------2-----2---2-----4---4-----4--4-----
A-----------------------------------------------------------
E-----------------------------------------------------------

  A chord diagramC majorC
e-------------------
B--------3------3---
G------0----------0-
D-4--4-----4--4-----
A-------------------
E-------------------

  A chord diagramA minorAm                     A chord diagramE minorEm              A chord diagramD MajorD
e-----------------------------------------------------------
B-------0----0h1-1-0-------0-3---0---3-----------3------3---
G-2---2--------------2-----------------0-------0----------0-
D---2-----2--------------2-----2---2-----4---4-----4--4-----
A-----------------------------------------------------------
E-----------------------------------------------------------

  A chord diagramC majorC
e---0-3---0-3---3-
B-1-----1-----1--- x4

Repeat chorus 2.


Outro:

  A chord diagramE minorEm        A chord diagramC majorC            A chord diagramD MajorD  A chord diagramA minorAm
e-----------------------------------------------------
B-----------------------------------------------------
G----0---0-----------0--------------------------------
D------4---4--2--2-4---4----------0-------------------
A---------------------------3-2-3---3-2-0-------0-----
E-----------------------------------------3-3-3---3-2-

  A chord diagramE minorEm          A chord diagramC majorC            A chord diagramD MajorD A chord diagramA minorAm              A chord diagramE minorEm
e------------------------------------0---------
B----------------------------1---1-----1-0-1---
G------0---0-----------0-------0---0-----------
D--------4---4--2--2-4---4-------------------2-
A----------------------------------------------
E-0--------------------------------------------

Chords needed:

  A chord diagramE minorEm    A chord diagramA minorAm    A chord diagramG+G     A chord diagramD MajorD     A chord diagramC majorC
e-0-----0-----3-----2-----0-
B-0-----1----0(3)---3-----1-
G-0-----2-----0-----2-----0-
D-2-----2-----0-----0-----2-
A-2-----0-----2----(0)----3-
E-0----(0)----3-----x----(0)
ⓘ Guitar tab for 'Unforgivable Sinner' by Lene Marlin, Lene Marlin Pedersen, a female acoustic artist from Tromsø, Norway. Lene Marlin was born in 1980.

Other versions of Unforgivable Sinner

Unforgivable sinner (Ver. 2)Tabs

Almost there ...

Sign in to get your own page with links to favourite songs and more. You are just one click away...

Login with Facebook Login with Google