Log in

One click and you are in

Login with Facebook Login with Google

Why sign up and log in

Guitar Tabs Explorer
Lene Marlin tabs for The way we are

Guitar tabs

"The way we are" by Lene Marlin
from the album "Playing my game"
Tabbed by Dado2


Intro (piano):

 A chord diagramBbmBbm        A chord diagramF#F#         A chord diagramC#C#         A chord diagramG#G#
e----------------------------------------------
B---2---2------2---2------2---2------2-1-------
G-----3---3------3---3------1---1--------3-1--- x2
Verse:


Intro riff once.

  A chord diagramBbmBbm        A chord diagramF#F#         A chord diagramC#C#         A chord diagramG#G#
   Piano:
e|----------------------------------------------|
A chord diagramBB|---2---2------2---2------2---2------0---0-----|
A chord diagramG+G|-----3---3------3---3------1---1------1---1---|
 | Guitar:                                      |
A chord diagramBB|---------------------------------1-2/4--------|

Intro riff three more times.


Chorus 1:

 A chord diagramC#C#     A chord diagramF#F#            A chord diagramBbmBbm    A chord diagramF#F#     A chord diagramC#C#           A chord diagramG#G#            F#...
e----------------------------------------------------------------------
B---2------2------2------2------2------2------2------0------0------2---
G-1---1--1---1--1---1--3---3--3---3--3---3--3---3--1---1--1---1--1---1-

Repeat verse.

Chorus 2:

 A chord diagramC#C#     A chord diagramF#F#            A chord diagramBbmBbm    A chord diagramF#F#     A chord diagramC#C#           A chord diagramG#G#
e---------------------------------------------------------------
B---2------2------2------2------2------2------2------0------0---
G-1---1--1---1--1---1--3---3--3---3--3---3--3---3--1---1--1---1-

 A chord diagramF#F#             A chord diagramBbmBbm        A chord diagramG#G# A chord diagramF#F# x4
e-------------||-------------------||
B---2------2--||:--2---2----1--1--:||
G-1---1--1---1||-----3---3---------||


Bridge:

 A chord diagramG#G#     A chord diagramF#F#     A chord diagramBbmBbm    A chord diagramG#G#            A chord diagramF#F#     A chord diagramBbmBbm    A chord diagramG#G#     A chord diagramF#F#
e----------------------------------------------------------------
B---0------2------2------0------0------2------2------0-------2---
G-1---1--1---1--1---1--1---1--1---1--1---1--1---1--1---1-------1-
D----------------------------------------------------------3-----
Short pause.


Chorus 3:

 A chord diagramC#C#     A chord diagramF#F#            A chord diagramBbmBbm    A chord diagramF#F#     A chord diagramC#C#           A chord diagramG#G#
e---------------------------------------------------------------
B---2------2------2------2------2------2------2------0------0---
G-1---1--1---1--1---1--3---3--3---3--3---3--3---3--1---1--1---1-

 A chord diagramF#F#            A chord diagramBbmBbm    A chord diagramF#F#            A chord diagramBbmBbm    G#... F#...
e------------------------------------------
B---2------2------2------2------2------2---
G-1---1--1---1--3---3--1---1--1---1--3---3-

Repeat intro until fade.

Chords needed:

 A chord diagramBbmBbm    A chord diagramG#G#    A chord diagramF#F#    A chord diagramC#C#
e-1-----4-----2-----1-
B-2-----4-----2-----2-
G-3-----5-----3-----1-
D-3-----6-----4-----3-
A-1-----6-----4-----4-
E(1)----4-----2----(1)

With capo on the 1st fret (chord position):
  A chord diagramA minorAm    A chord diagramG+G     A chord diagramFF     A chord diagramC majorC
e-0-----3-----1-----0-
B-1----0(3)---1-----1-
G-2-----0-----2-----0-
D-2-----0-----3-----2-
A-0-----2---(0/3)---3-
E(0)----3----(1)---(0)

For any comments, questions or threats e-mail me at:
dado2_714@yahoo.it

Almost there ...

Sign in to get your own page with links to favourite songs and more. You are just one click away...

Login with Facebook Login with Google