Log in

One click and you are in

Login with Facebook Login with Google

Why sign up and log in

Guitar Tabs Explorer
Lene Marlin tabs for So i see

Guitar tabs with lyrics

"So I see" by Lene Marlin
from the album "Playing my game"
Tabbed by Dado2

Here's the tab of one of the best songs of this album. You can even play
it just as chords. I didn't tab all that there was to, because i don't have
such a good ear and not even an electric guitar. I hope you'll be able to
understand it, i know it's pretty ununderstandable; if you have any
difficulties don't hesitate to e-mail me.
Intro:

low_E---5\2- (to start)

     A chord diagramA augmentedA  A chord diagramE MajorE  A chord diagramF# minorF#m A chord diagramD MajorD
A chord diagramD MajorD||:-----------7-7-4-7p4-:|| x3

A chord diagramA augmentedA A chord diagramE MajorE A chord diagramF# minorF#m


Verse 1:

  A chord diagramF# minorF#m               A chord diagramA augmentedA         A chord diagramB minorBm   A chord diagramA augmentedA   A chord diagramF# minorF#m     A chord diagramA augmentedA          A chord diagramB minorBm       A chord diagramA augmentedA
e--------------------------------------2---2---0---0..---------------
B-------------2-3----------------------2---2---2---2..----2/3--2/3-2-
G------2--2----------------------------2---2---2---2..---------------
D----4-----------------7p4-------------4---4---2---2..---------------
A--------------------------------------4---4---0---0..---------------
E--------------------------------------2---2-------------------------
             (louder)                              ^--many strums

  E4              A chord diagramE MajorE
e-0---------0-----0---------0-----
B---------------------------------
G---2-2-1-----2-1---2-2-1-----2-1-

Chorus:

     A chord diagramA augmentedA  A chord diagramE MajorE  A chord diagramF# minorF#m A chord diagramD MajorD
A chord diagramD MajorD||:-----------7-7-4-7p4-:|| x3

  A chord diagramA augmentedA  A chord diagramE MajorE  A chord diagramF# minorF#m
e---------0-------0-----
B-----------0-------0---
G-------2-----2-2-----0-


Verse 1:

  A chord diagramF# minorF#m               A chord diagramA augmentedA             A chord diagramB minorBm   A chord diagramA augmentedA   A chord diagramF# minorF#m     A chord diagramA augmentedA          A chord diagramB minorBm       A chord diagramA augmentedA
e------------------------------------------2---2---0---0..---------------
B------------------------------------------2---2---2---2..----2/3--2/3-2-
G-------------------------6----------------2---2---2---2..---------------
D----7\4--4---7\2-----------7-7p2----------4---4---2---2..---------------
A---------------------9-9------------------4---4---0---0..---------------
E------------------------------------------2---2-------------------------
                                                       ^--many strums
  E4              A chord diagramE MajorE
e-0---------0-----0---------0-----
B---------------------------------
G---2-2-1-----2-1---2-2-1-----2-1-

Repeat chorus.

Piano solo:

   Piano:
A chord diagramBB|-2-0-2-0-2-3-2--2-0-2-0-2--3-2--2-0-5-3-2-0-2-----|
 | Guitar:                                          | x2
A chord diagramBB|------------------------2p3-------------------7p4-|


Bridge:

  A chord diagramF# minorF#m     A chord diagramA augmentedA          A chord diagramB minorBm       A chord diagramA augmentedA  E4              A chord diagramE MajorE
e-2---2---0---0..----------------0---------0-----0---------0-----
B-2---2---2---2..----2/3--2/3-2----------------------------------
G-2---2---2---2..------------------2-2-1-----2-1---2-2-1-----2-1-
D-4---4---2---2..------------------------------------------------
A-4---4---0---0..------------------------------------------------
E-2---2----------------------------------------------------------
              ^--many strums

Repeat chorus twice.

Chords needed:

  A chord diagramA augmentedA     A chord diagramE MajorE     E4    A chord diagramF#F#    A chord diagramD MajorD
e-0-----0-----0-----2-----2-
B-2-----0-----0-----2-----3-
G-2-----1-----2-----2-----2-
D-2-----2-----2-----4-----0-
A-0-----2-----2-----4----(0)
E(0)----0-----0-----2-----x-

For any comments, questions or threats e-mail me at:
dado2_714@yahoo.it

Almost there ...

Sign in to get your own page with links to favourite songs and more. You are just one click away...

Login with Facebook Login with Google