Log in

One click and you are in

Login with Facebook Login with Google

Why sign up and log in

Guitar Tabs Explorer
Lene Marlin tabs for Playing my game

Guitar tabs with lyrics

"Playing my game" by Lene Marlin
from the omonymous album
Tabbed by Dado2

I don't know if you'll manage to play this, most of all the bendings in the
guitar solo (i can't!), but here it is.
For space matters, i've put down just the high E, A chord diagramBB and A chord diagramG+G strings.

/ = slide up
b = bend
r = release bending
(X)bY = bend the X fret to Y, playing only the Y note
h = hammer on
Intro:
  A chord diagramB minorBm            A chord diagramD MajorD
e----------------------------
B-----0-3--0-3--------3----3-
G-2-------------2---2----2--- x4


Verse:
repeat intro riff x3; then play                           |
  A chord diagramA augmentedA             A chord diagramG+G                                         |
e-------0----0-------------------------------------------  > x2 (1st time)
B-2---2----2----0---0-3--0-3--0---0-3--0-3--0---0-3--0-3- |  once (2nd time)
G-------------------------------------------------------- |


Chorus:
  A chord diagramB minorBm            A chord diagramG+G             A chord diagramA augmentedA          A chord diagramD MajorD  A chord diagramG+G
e-----------------------------------0--------------------
B-----0-3--0-3--0---0-3--0-3--2---2----2-3--0---0-3--0-3-
G-2------------------------------------------------------ x3

  A chord diagramB minorBm            A chord diagramA augmentedA             A chord diagramG+G
e---------------------0----0-----------------------------
B-----0-3--0-3--2---2----2----0---0-3--0-3--0---0-3--0-3-
G-2------------------------------------------------------

Repeat intro riff twice, then verse and chorus.

Bridge:
  A chord diagramA augmentedA                           A chord diagramD MajorD
e-------0----0--------0----0-----------------------------
B-2---2----2----2---2----2----------3----3--------3----3-
G-----------------------------2---2----2----2---2----2---

  A chord diagramA augmentedA             A chord diagramD MajorD             A chord diagramG+G
e-------0----0-------------------------------------------
B-2---2----2----------3----3--0---0-3--0-3--0---0-3--0-3-
G---------------2---2----2-------------------------------

  A chord diagramG+G
e--------------------------------------------------------
B-0---0-3--0-3--0---0-3--0-3--0---0-3--0-3--0---0-3--0-3-
G--------------------------------------------------------

Guitar solo:
  A chord diagramB minorBm      A chord diagramG+G           A chord diagramA augmentedA  A chord diagramD MajorD    A chord diagramG+G    A chord diagramB minorBm       A chord diagramG+G                  A chord diagramA augmentedA  A chord diagramD MajorD        A chord diagramG+G
e---------------1/2-0--------------8/9-10-9----10-10-13/14-12--9--10-10/12-10-
B-2--3-2--0---3-------2--3----0-------------12--------------------------------
G---------------------------2-------------------------------------------------

      A chord diagramB minorBm           A chord diagramG+G     A chord diagramA augmentedA     A chord diagramD MajorD       A chord diagramG+G  A chord diagramB minorBm           A chord diagramA augmentedA         A chord diagramG+G
e-------------------------------------------9h10-10-10--9-9h10-9-9--10-9-7-
B-(5)b7r5-3-3--3---3-------3-5-5b7-5-3-------------------------------------
G----------------6---4---6-------------4-----------------------------------

Repeat chorus, then guitar stops playing:
A chord diagramB minorBm                 A chord diagramD MajorD    A chord diagramB minorBm
   i'm playing my game...


Outro:
Repeat intro riff x6; then play
     A chord diagramB minorBm            A chord diagramD MajorD
  Guitar 1
e|------------------------------|
A chord diagramBB|-------0-3--0-3--------3----3-|
A chord diagramG+G|---2-------------2---2----2---|
 |Guitar 2                      |
e|------------------------------|
A chord diagramBB|-1/2-----3---2---0------------|
A chord diagramG+G|------------------------------|

Repeat intro riff x3; then guitar 1 stops playing.
     A chord diagramB minorBm            A chord diagramD MajorD
e--8/9-----10--9-----------------
B------------------12------------
G--------------------------------

Fade out with A chord diagramB minorBm and A chord diagramD MajorD chords.

Chords needed:

  A chord diagramB minorBm    A chord diagramA augmentedA     A chord diagramG+G     A chord diagramD MajorD
e-2-----0-----3-----2-
B-3-----2----0(3)---3-
G-4-----2-----0-----2-
D-4-----2-----0-----0-
A-2-----0-----2----(0)
E(2)---(0)----3-----x-

For any comments, questions or threats e-mail me at:
dado2_714@yahoo.it

Almost there ...

Sign in to get your own page with links to favourite songs and more. You are just one click away...

Login with Facebook Login with Google