Log in

One click and you are in

Login with Facebook Login with Google

Why sign up and log in

Guitar Tabs Explorer
Lene Marlin chords for A place nearby

Chords

Intro:

  A chord diagramDmDm                  A chord diagramA minorAm                   A chord diagramFF             A chord diagramG+G          A chord diagramA minorAm
e-1--1-0---0------------------------0---------------------------------
B---3-------3---3-1---1--1-0---0-------3---1--------1--1-3-----0--3-1-
G--2------2----2--------2-------2--0-------------2---------0-0--------
D----------------------2------2--------------3-3----------------------
A---------------------------------------------------------------------
E---------------------------------------------------------------------
 (actually played by piano)


Verse:

| A chord diagramC majorC | A chord diagramG+G | A chord diagramA minorAm | A chord diagramG+G |
| A chord diagramC majorC | A chord diagramG+G | A chord diagramA minorAm | A chord diagramFF |


Chorus:

| A chord diagramC majorC A chord diagramA minorAm | A chord diagramFF A chord diagramG+G A chord diagramC majorC | A chord diagramDmDm A chord diagramC majorC | A chord diagramFF A chord diagramG+G |
| A chord diagramC majorC A chord diagramA minorAm | A chord diagramFF A chord diagramG+G A chord diagramA minorAm | A chord diagramG+G A chord diagramDmDm | A chord diagramFF A chord diagramG+G |

Repeat verse, chorus and intro.


Bridge:

| A chord diagramDmDm | A chord diagramA minorAm | A chord diagramFF A chord diagramG+G | A chord diagramA minorAm | (same chords as intro)

Repeat chorus and intro.

Chords needed:
  A chord diagramDmDm A chord diagramA minorAm A chord diagramFF  A chord diagramG+G  A chord diagramC majorC
e-1--0--1--3--0---
B-3--1--1--0--1---
G-2--2--2--0--0---
D-0--2--3--0--2---
A-x--0--3--2--3---
E-x--x--1--3--x---

ⓘ Guitar chords for 'A Place Nearby' by Lene Marlin, Lene Marlin Pedersen, a female acoustic artist from Tromsø, Norway. Lene Marlin was born in 1980.

Almost there ...

Sign in to get your own page with links to favourite songs and more. You are just one click away...

Login with Facebook Login with Google