Log in

One click and you are in

Login with Facebook Login with Google

Why sign up and log in

Guitar Tabs Explorer
Bob Marley bass tabs for Waiting in vain

Bass tabs

BOB MARLEY_WAITING IN VAIN .btab

TablEdited by Jan Bjorklund  <jani_bjorklund@yahoo.se>
You are welcome to request for tabs!
Fingering and positions as suggested by TablEdit, please use common sense.

TablEdited by Jan Bjorklund

Tuning : E A D G 	Time Signature: 4/4

 |        |        |        |
|----------------------------------------------------------------|
|----------------------------------------------------------------|
|--------------------1---------------------------------------3---|
|4-----------4-----------4---------------4---4-------4-----------|

 |        |        |        |
|----------------------------------------5-------3---------------|
|----------------------------------------------------6---3-------|
|4-----------4-------6---4-----------------------------------6---|
|----------------------------------------------------------------|

 |        |        |        |
|----------------------------------------------------------------|
|----------------------------------------------------------------|
|--------------------1---------------------------------------3---|
|4-----------4-----------4---------------4---4-------4-----------|

 |        |        |        |
|----------------------------------------5-------3---------------|
|----------------------------------------------------6---3-------|
|4-----------4-------6---4-----------------------------------6---|
|----------------------------------------------------------------|

 |        |        |        |
|----------------------------------------------------------------|
|----------------------------------------------------------------|
|--------------------1---------------------------------------3---|
|4-----------4-----------4---------------4---4-------4-----------|

 |        |        |        |
|----------------------------------------5-------3---------------|
|----------------------------------------------------6---3-------|
|4-----------4-------6---4-----------------------------------6---|
|----------------------------------------------------------------|

 |        |        |        |
|----------------------------------------------------------------|
|----------------------------------------------------------------|
|--------------------1---------------------------------------3---|
|4-----------4-----------4---------------4---4-------4-----------|

 |        |        |        |
|----------------------------------------5-----------------------|
|----------------------------------------------------6---3-------|
|4-----------4-------6---4-----------------------------------6---|
|----------------------------------------------------------------|

 |        |        |        |
|----------------------------------------------------------------|
|----------------------------------------------------------------|
|--------------------1---------------------------------------3---|
|4-----------4-----------4---------------4---4-------4-----------|

 |        |        |        |
|----------------------------------------------------------------|
|--------------------1---------------------------------------1---|
|4-----------4-----------4---------------4---4-------4-----------|
|----------------------------------------------------------------|

 |        |        |        |
|----------------------------------------------------------------|
|----------------------------------------------------------------|
|--------------------1---------------------------------------3---|
|4-----------4-----------4---------------4---4-------4-----------|

 |        |        |        |
|----------------------------------------------------------------|
|--------------------1---------------------------------------1---|
|4-----------4-----------4---------------4---4-------4-----------|
|----------------------------------------------------------------|

 |        |        |        |
|----------------------------------------------------------------|
|----------------------------------------------------------------|
|--------------------1---------------------------------------3---|
|4-----------4-----------4---------------4---4-------4-----------|

 |        |        |        |
|----------------------------------------------------------------|
|--------------------1---------------------------------------1---|
|4-----------4-----------4---------------4---4-------4-----------|
|----------------------------------------------------------------|

 |        |        |        |
|----------------------------------------------------------------|
|----------------------------------------------------------------|
|--------------------1---------------------------------------3---|
|4-----------4-----------4---------------4---4-------4-----------|

 |        |        |        |
|----------------------------------------------------------------|
|--------------------1---------------------------------------1---|
|4-----------4-----------4---------------4---4-------4-----------|
|----------------------------------------------------------------|

 |        |        |        |
|----------------------------------------------------------------|
|----------------------------------------------------------------|
|--------------------1---------------------------------------3---|
|4-----------4-----------4---------------4---4-------4-----------|

 |        |        |        |
|----------------------------------------------------------------|
|--------------------1---------------------------------------1---|
|4-----------4-----------4---------------4---4-------4-----------|
|----------------------------------------------------------------|

 |        |        |        |
|----------------------------------------------------------------|
|----------------------------------------------------------------|
|--------------------1---------------------------------------3---|
|4-----------4-----------4---------------4---4-------4-----------|

 |        |        |        |
|----------------------------------------------------------------|
|--------------------1---------------------------------------1---|
|4-----------4-----------4---------------4---4-------4-----------|
|----------------------------------------------------------------|

 |        |        |        |
|----------------------------------------------------------------|
|----------------------------------------------------------------|
|--------------------1---------------------------------------3---|
|4-----------4-----------4---------------4---4-------4-----------|

 |        |        |        |
|----------------------------------------------------------------|
|--------------------1---------------------------------------1---|
|4-----------4-----------4---------------4---4-------4-----------|
|----------------------------------------------------------------|

 |        |        |        |
|----------------------------------------------------------------|
|----------------------------------------------------------------|
|--------------------1---------------------------------------3---|
|4-----------4-----------4---------------4---4-------4-----------|

 |        |        |        |
|----------------------------------------------------------------|
|--------------------1---------------------------------------1---|
|4-----------4-----------4---------------4---4-------4-----------|
|----------------------------------------------------------------|

 |        |        |        |
|----------------------------------------------------------------|
|----------------------------------------------------------------|
|--------------------1---------------------------------------3---|
|4-----------4-----------4---------------4---4-------4-----------|

 |        |        |        |
|----------------------------------------5-------3---------------|
|----------------------------------------------------6---3-------|
|4-----------4-------6---4-----------------------------------6---|
|----------------------------------------------------------------|

 |        |        |        |
|----------------------------------------------------------------|
|----------------------------------------------------------------|
|--------------------1---------------------------------------3---|
|4-----------4-----------4---------------4---4-------4-----------|

 |        |        |        |
|----------------------------------------5-------3---------------|
|----------------------------------------------------6---3-------|
|4-----------4-------6---4-----------------------------------6---|
|----------------------------------------------------------------|

 |        |        |        |
|----------------------------------------------------------------|
|----------------------------------------------------------------|
|--------------------1---------------------------------------3---|
|4-----------4-----------4---------------4---4-------4-----------|

 |        |        |        |
|----------------------------------------5-------3---------------|
|----------------------------------------------------6---3-------|
|4-----------4-------6---4---4-----------------------------------|
|----------------------------------------------------------------|

 |        |        |        |
|----------------------------------------------------------------|
|------------------------1-----------------------1---------------|
|4---------------------------------------1---------------4-------|
|----------------------------------------------------------------|

 |        |        |        |
|----------------------------------------------------------------|
|----------------------------------------------------------------|
|3-----------------------1---------------------------------------|
|----------------------------------------------------------------|

 |        |        |        |
|----------------------------------------------------------------|
|------------------------1-----------------------1---------------|
|4---------------------------------------1---------------4-------|
|----------------------------------------------------------------|

 |        |        |        |
|----------------------------------------------------------------|
|----------------------------------------------------------------|
|3-----------------------1---------------------------------------|
|----------------------------------------------------------------|

 |        |        |        |
|----------------------------------------------------------------|
|----------------------------------------------------------------|
|--------------------1---------------------------------------3---|
|4-----------4-----------4---------------4---4-------4-----------|

 |        |        |        |
|----------------------------------------5-------3---------------|
|----------------------------------------------------6---3-------|
|4-----------4-------6---4-----------------------------------6---|
|----------------------------------------------------------------|

 |        |        |        |
|----------------------------------------------------------------|
|----------------------------------------------------------------|
|--------------------1---------------------------------------3---|
|4-----------4-----------4---------------4---4-------4-----------|

 |        |        |        |
|----------------------------------------5-------3---------------|
|----------------------------------------------------6---3-------|
|4-----------4-------6---4-----------------------------------6---|
|----------------------------------------------------------------|

 |        |        |        |
|----------------------------------------------------------------|
|----------------------------------------------------------------|
|--------------------1---------------------------------------3---|
|4-----------4-----------4---------------4---4-------4-----------|

 |        |        |        |
|----------------------------------------5-------3---------------|
|----------------------------------------------------6---3-------|
|4-----------4-------6---4-----------------------------------6---|
|----------------------------------------------------------------|

 |        |        |        |
|----------------------------------------------------------------|
|----------------------------------------------------------------|
|--------------------1---------------------------------------3---|
|4-----------4-----------4---------------4---4-------4-----------|

 |        |        |        |
|----------------------------------------5-------3---------------|
|----------------------------------------------------6---3-------|
|4-----------4-------6---4-----------------------------------6---|
|----------------------------------------------------------------|

 |        |        |        |
|----------------------------------------------------------------|
|----------------------------------------------------------------|
|--------------------1---------------------------------------3---|
|4-----------4-----------4---------------4---4-------4-----------|

 |        |        |        |
|----------------------------------------------------------------|
|--------------------1---------------------------------------1---|
|4-----------4-----------4---------------4---4-------4-----------|
|----------------------------------------------------------------|

 |        |        |        |
|----------------------------------------------------------------|
|----------------------------------------------------------------|
|--------------------1---------------------------------------3---|
|4-----------4-----------4---------------4---4-------4-----------|

 |        |        |        |
|----------------------------------------------------------------|
|--------------------1---------------------------------------1---|
|4-----------4-----------4---------------4---4-------4-----------|
|----------------------------------------------------------------|

 |        |        |        |
|----------------------------------------------------------------|
|----------------------------------------------------------------|
|--------------------1---------------------------------------3---|
|4-----------4-----------4---------------4---4-------4-----------|

 |        |        |        |
|----------------------------------------------------------------|
|--------------------1---------------------------------------1---|
|4-----------4-----------4---------------4---4-------4-----------|
|----------------------------------------------------------------|

 |        |        |        |
|----------------------------------------------------------------|
|----------------------------------------------------------------|
|--------------------1---------------------------------------3---|
|4-----------4-----------4---------------4---4-------4-----------|

 |        |        |        |
|----------------------------------------------------------------|
|--------------------1---------------------------------------1---|
|4-----------4-----------4---------------4---4-------4-----------|
|----------------------------------------------------------------|

 |        |        |        |
|----------------------------------------------------------------|
|----------------------------------------------------------------|
|--------------------1---------------------------------------3---|
|4-----------4-----------4---------------4---4-------4-----------|

 |        |        |        |
|----------------------------------------------------------------|
|--------------------1---------------------------------------1---|
|4-----------4-----------4---------------4---4-------4-----------|
|----------------------------------------------------------------|

 |        |        |        |
|----------------------------------------------------------------|
|----------------------------------------------------------------|
|--------------------1---------------------------------------3---|
|4-----------4-----------4---------------4---4-------4-----------|

 |        |        |        |
|----------------------------------------------------------------|
|--------------------1---------------------------------------1---|
|4-----------4-----------4---------------4---4-------4-----------|
|----------------------------------------------------------------|

 |        |        |        |
|----------------------------------------------------------------|
|----------------------------------------------------------------|
|--------------------1---------------------------------------3---|
|4-----------4-----------4---------------4---4-------4-----------|

 |        |        |        |
|----------------------------------------------------------------|
|--------------------1---------------------------------------1---|
|4-----------4-----------4---------------4---4-------4-----------|
|----------------------------------------------------------------|

 |        |        |        |
|----------------------------------------------------------------|
|----------------------------------------------------------------|
|--------------------1---------------------------------------3---|
|4-----------4-----------4---------------4---4-------4-----------|

 |        |        |        |
|----------------------------------------------------------------|
|--------------------1---------------------------------------1---|
|4-----------4-----------4---------------4---4-------4-----------|
|----------------------------------------------------------------|

 |        |        |        |
|----------------------------------------------------------------|
|----------------------------------------------------------------|
|--------------------1---------------------------------------3---|
|4-----------4-----------4---------------4---4-------4-----------|

 |        |        |        |
|----------------------------------------5-------3---------------|
|----------------------------------------------------6---3-------|
|4-----------4-------6---4-----------------------------------6---|
|----------------------------------------------------------------|

 |        |        |        |
|----------------------------------------------------------------|
|----------------------------------------------------------------|
|--------------------1---------------------------------------3---|
|4-----------4-----------4---------------4---4-------4-----------|

 |        |        |        |
|----------------------------------------5-------3---------------|
|----------------------------------------------------6---3-------|
|4-----------4-------6---4-----------------------------------6---|
|----------------------------------------------------------------|

 |        |        |        |
|----------------------------------------------------------------|
|----------------------------------------------------------------|
|--------------------1---------------------------------------3---|
|4-----------4-----------4---------------4---4-------4-----------|

 |        |        |        |
|----------------------------------------5-------3---------------|
|----------------------------------------------------6---3-------|
|4-----------4-------6---4-----------------------------------6---|
|----------------------------------------------------------------|

 |        |        |        |
|----------------------------------------------------------------|
|----------------------------------------------------------------|
|--------------------1---------------------------------------3---|
|4-----------4-----------4---------------4---4-------4-----------|

 |        |        |        |
|----------------------------------------5-------3---------------|
|----------------------------------------------------6---3-------|
|4-----------4-------6---4-----------------------------------6---|
|----------------------------------------------------------------|

 |        |        |        |
|----------------------------------------------------------------|
|----------------------------------------------------------------|
|--------------------1---------------------------------------3---|
|4-----------4-----------4---------------4---4-------4-----------|

 |        |        |        |
|----------------------------------------5-------3---------------|
|----------------------------------------------------6---3-------|
|4-----------4-------6---4-----------------------------------6---|
|----------------------------------------------------------------|

 |        |        |        |
|----------------------------------------------------------------|
|----------------------------------------------------------------|
|--------------------1---------------------------------------3---|
|4-----------4-----------4---------------4---4-------4-----------|

 |        |        |        |
|----------------------------------------------------------------|
|--------------------1---------------------------------------1---|
|4-----------4-----------4---------------4---4-------4-----------|
|----------------------------------------------------------------|

 |        |        |        |
|----------------------------------------------------------------|
|----------------------------------------------------------------|
|--------------------1---------------------------------------3---|
|4-----------4-----------4---------------4---4-------4-----------|

 |        |        |        |
|----------------------------------------------------------------|
|--------------------1---------------------------------------1---|
|4-----------4-----------4---------------4---4-------4-----------|
|----------------------------------------------------------------|

 |        |        |        |
|----------------------------------------------------------------|
|----------------------------------------------------------------|
|--------------------1---------------------------------------3---|
|4-----------4-----------4---------------4---4-------4-----------|

 |        |        |        |
|----------------------------------------------------------------|
|--------------------1---------------------------------------1---|
|4-----------4-----------4---------------4---4-------4-----------|
|----------------------------------------------------------------|

 |        |        |        |
|----------------------------------------------------------------|
|----------------------------------------------------------------|
|--------------------1---------------------------------------3---|
|4-----------4-----------4---------------4---4-------4-----------|

 |        |        |        |
|----------------------------------------------------------------|
|--------------------1---------------------------------------1---|
|4-----------4-----------4---------------4---4-------4-----------|
|----------------------------------------------------------------|

 |        |        |        |
|----------------------------------------------------------------|
|----------------------------------------------------------------|
|--------------------1---------------------------------------3---|
|4-----------4-----------4---------------4---4-------4-----------|

 |        |        |        |
|----------------------------------------------------------------|
|--------------------1---------------------------------------1---|
|4-----------4-----------4---------------4---4-------4-----------|
|----------------------------------------------------------------|

 |        |        |        |
|----------------------------------------------------------------|
|----------------------------------------------------------------|
|--------------------1---------------------------------------3---|
|4-----------4-----------4---------------4---4-------4-----------|

 |        |        |        |
|----------------------------------------------------------------|
|--------------------1---------------------------------------1---|
|4-----------4-----------4---------------4---4-------4-----------|
|----------------------------------------------------------------|

 |        |        |        |
|----------------------------------------------------------------|
|----------------------------------------------------------------|
|--------------------1---------------------------------------3---|
|4-----------4-----------4---------------4---4-------4-----------|

 |        |        |        |
|----------------------------------------------------------------|
|--------------------1---------------------------------------1---|
|4-----------4-----------4---------------4---4-------4-----------|
|----------------------------------------------------------------|

 |        |        |        |
|----------------------------------------------------------------|
|----------------------------------------------------------------|
|----------------------------------------------------------------|
|4---------------------------------------------------------------|



............................................................

Almost there ...

Sign in to get your own page with links to favourite songs and more. You are just one click away...

Login with Facebook Login with Google