Log in

One click and you are in

Login with Facebook Login with Google

Why sign up and log in

Guitar Tabs Explorer
Bob Marley tabs for Redemption song

Guitar tabs

transcription by csb1@engr.uark.edu (Chris Bray)
with intro tab by pat@jaameri.gsfc.nasa.gov (patrick m. ryan)

Bob Marley - Redemption Song
>From the album "Uprising"
|---------------------------------------------------------------------|
|---------------------------------------------------------------------|
|---------------------------------------------------------------------|
|----------------------2--0-------------------------0-----------------|
|--------0--2-----3----------3--2--0--------0--0b2-----2--3--2--0-----|
|--3--3--------3----------------------3--3-------------------------3--|

|---------------------------------------------------------------------|
|---------------------------------------------------------------------|
|---------------------------------------------------------------------|
|--------------------0b2--0-------------------------0--------------0--|
|--------0--2-----3----------3--2--0--------0--0b2-----2--3--2--0--2--|
|--3--3--------3----------------------3--3-------------------------3--|


    A chord diagramG+G                      A chord diagramE minor 7Em7
Old ..
    A chord diagramC majorC         A chord diagramG/BG/B             A chord diagramA minorAm
Sold ..
A chord diagramG+G                      A chord diagramE minorEm  A chord diagramC majorC         A chord diagramG/BG/B       A chord diagramA minorAm
minutes ...
       A chord diagramG+G            A chord diagramE minor 7Em7
But ..
A chord diagramC majorC           A chord diagramG/BG/B          A chord diagramA minorAm
By..
     A chord diagramG+G                  A chord diagramE minorEm   A chord diagramC majorC          A chord diagramD MajorD
We ...

Chorus
                         A chord diagramG+G  A chord diagramC majorC    A chord diagramD MajorD          A chord diagramG+G
   Won't..
          A chord diagramC majorC     A chord diagramD MajorD       A chord diagramE minorEm  A chord diagramC majorC   A chord diagramD MajorD      A chord diagramG+G
   'Cause ..
  A chord diagramC majorC   A chord diagramD MajorD      A chord diagramG+G        A chord diagramC majorC
   redemption...
A chord diagramD MajorD     A chord diagramG+G                           A chord diagramE minor 7Em7
Emancipate..,
           A chord diagramC majorC           A chord diagramG/BG/B             A chord diagramA minorAm
None ..
       A chord diagramG+G                    A chord diagramE minorEm
Have ..
              A chord diagramC majorC         A chord diagramG/BG/B            A chord diagramA minorAm
'Cause ...
    A chord diagramG+G                        A chord diagramE minor 7Em7
How ..
        A chord diagramC majorC       A chord diagramG/BG/B            A chord diagramA minorAm
While ..
             A chord diagramG+G            A chord diagramE minorEm
Yes, ...
      A chord diagramC majorC                 A chord diagramD MajorD
We've ...


Chorus


verse

A chord diagramG+G       320003          A chord diagramE minor 7Em7     020000
A chord diagramC majorC       x32010          A chord diagramG/BG/B     x20003
A chord diagramA minorAm      x02210          A chord diagramE minorEm      022000
A chord diagramD MajorD       xx0232

Other versions of Redemption Song

Redemption songChords
Redemption song ukuleleChords
Redemption songsChords
Redemption song - introTabs

Almost there ...

Sign in to get your own page with links to favourite songs and more. You are just one click away...

Login with Facebook Login with Google