Log in

One click and you are in

Login with Facebook Login with Google

Why sign up and log in

Guitar Tabs Explorer
Bob Marley bass tabs for Punky reggae party

Bass tabs

BOB MARLEY_PUNKY REGGAE PARTY.btab


TablEdited by Jan Bjorklund

Tuning : E A D G 	Time Signature: 4/4

 |        |        |        |
|----------------------------------------------------------------|
|----------------------------------------------------------------|
|------------------------------------------------------------2---|
|----------------------------------------------------------------|

 |        |        |        |
|----------------------------------------------------------------|
|----------------------------------------------------------------|
|2-----------------------------------------------------------2---|
|----------------------------------------------------------------|

 |        |        |        |
|----------------------------------------------------------------|
|----------------------------------------------------------------|
|2-----------2-------2---2-----------------------------------2---|
|----------------------------------------------------------------|

 |        |        |        |
|----------------------------------------------------------------|
|----------------------------------------------------------------|
|2-----------------------------------------------------------2---|
|----------------------------------------------------------------|

 |        |        |        |
|----------------------------------------------------------------|
|----------------------------------------------------------------|
|2-----------2-------2---2---------------------------------------|
|----------------------------------------------------------------|

 |        |        |        |
|----------------------------------------------------------------|
|----------------4---4-------------------------------------------|
|--------2---2-----------2-------0---0---2-----------------------|
|----------------------------2-----------------------------------|

 |        |        |        |
|----------------------------------------------------------------|
|----------------4-------0---2---0-------------------------------|
|--------2---2---------------------------2-----------------------|
|----------------------------------------------------------------|

 |        |        |        |
|----------------------------------------------------------------|
|----------------4---4-------------------------------------------|
|--------2---2-----------2-------0---0---2-----------------------|
|----------------------------2-----------------------------------|

 |        |        |        |
|----------------------------------------------------------------|
|----------------4-------0---2---0-------------------------------|
|--------2---2---------------------------2-----------------------|
|----------------------------------------------------------------|

 |        |        |        |
|----------------------------------------------------------------|
|----------------4---4-------------------------------------------|
|--------2---2-----------2-------0---0---2-----------------------|
|----------------------------2-----------------------------------|

 |        |        |        |
|----------------------------------------------------------------|
|----------------4-------0---2---0-------------------------------|
|--------2---2---------------------------2-----------------------|
|----------------------------------------------------------------|

 |        |        |        |
|----------------------------------------------------------------|
|----------------4---4-------------------------------------------|
|--------2---2-----------2-------0---0---2-----------------------|
|----------------------------2-----------------------------------|

 |        |        |        |
|----------------------------------------------------------------|
|----------------4-------0---2---0-------------------------------|
|--------2---2---------------------------2-----------------------|
|----------------------------------------------------------------|

 |        |        |        |
|----------------------------------------------------------------|
|----------------4---4-------------------------------------------|
|--------2---2-----------2-------0---0---2-----------------------|
|----------------------------2-----------------------------------|

 |        |        |        |
|----------------------------------------------------------------|
|----------------4-------0---2---0-------------------------------|
|--------2---2---------------------------2-----------------------|
|----------------------------------------------------------------|

 |        |        |        |
|----------------------------------------------------------------|
|----------------4---4-------------------------------------------|
|--------2---2-----------2-------0---0---2-----------------------|
|----------------------------2-----------------------------------|

 |        |        |        |
|----------------------------------------------------------------|
|----------------4-------0---2---0-------------------------------|
|--------2---2---------------------------2-----------------------|
|----------------------------------------------------------------|

 |        |        |        |
|----------------------------------------------------------------|
|----------------4---4-------------------------------------------|
|--------2---2-----------2-------0---0---2-----------------------|
|----------------------------2-----------------------------------|

 |        |        |        |
|----------------------------------------------------------------|
|----------------4-------0---2---0-------------------------------|
|--------2---2---------------------------2-----------------------|
|----------------------------------------------------------------|

 |        |        |        |
|----------------------------------------------------------------|
|----------------4---4-------------------------------------------|
|--------2---2-----------2-------0---0---2-----------------------|
|----------------------------2-----------------------------------|

 |        |        |        |
|----------------------------------------------------------------|
|----------------4-------0---2---0-------------------------------|
|--------2---2---------------------------2-----------------------|
|----------------------------------------------------------------|

 |        |        |        |
|----------------4---4-------------------------------------------|
|--------2---2-----------2---2-------------------2---2---2-------|
|----2---------------------------2---2---2-----------------------|
|----------------------------------------------------------------|

 |        |        |        |
|----------------2---2-------------------------------------------|
|0-----------0-----------0---0-------------------0---0---0-------|
|--------------------------------0---0---0-----------------------|
|----------------------------------------------------------------|

 |        |        |        |
|----------------4---4-------------------------------------------|
|--------2---2-----------2---2-------------------2---2---2-------|
|----2---------------------------2---2---2-----------------------|
|----------------------------------------------------------------|

 |        |        |        |
|----------------2---2-------------------------------------------|
|0-----------0-----------0---0-------------------0---0---0-------|
|--------------------------------0---0---0-----------------------|
|----------------------------------------------------------------|

 |        |        |        |
|----------------4---4-------------------------------------------|
|--------2---2-----------2---2-------------------2---2---2-------|
|----2---------------------------2---2---2-----------------------|
|----------------------------------------------------------------|

 |        |        |        |
|----------------2---2-------------------------------------------|
|0-----------0-----------0---0-------------------0---0---0-------|
|--------------------------------0---0---0-----------------------|
|----------------------------------------------------------------|

 |        |        |        |
|----------------4---4-------------------------------------------|
|--------2---2-----------2---2-------------------2---2---2-------|
|----2---------------------------2---2---2-----------------------|
|----------------------------------------------------------------|

 |        |        |        |
|----------------2---2-------------------------------------------|
|0-----------0-----------0---0-------------------0---------------|
|--------------------------------0---0---0-----------------------|
|----------------------------------------------------------------|

 |        |        |        |
|----------------------------------------------------------------|
|----------------4---4-------------------------------------------|
|--------2---2-----------2-------0---0---2-----------------------|
|----------------------------2-----------------------------------|

 |        |        |        |
|----------------------------------------------------------------|
|----------------4-------0---2---0-------------------------------|
|--------2---2---------------------------2-----------------------|
|----------------------------------------------------------------|

 |        |        |        |
|----------------------------------------------------------------|
|----------------4---4-------------------------------------------|
|--------2---2-----------2-------0---0---2-----------------------|
|----------------------------2-----------------------------------|

 |        |        |        |
|----------------------------------------------------------------|
|----------------4-------0---2---0-------------------------------|
|--------2---2---------------------------2-----------------------|
|----------------------------------------------------------------|

 |        |        |        |
|----------------------------------------------------------------|
|----------------4---4-------------------------------------------|
|--------2---2-----------2-------0---0---2-----------------------|
|----------------------------2-----------------------------------|

 |        |        |        |
|----------------------------------------------------------------|
|----------------4-------0---2---0-------------------------------|
|--------2---2---------------------------2-----------------------|
|----------------------------------------------------------------|

 |        |        |        |
|----------------------------------------------------------------|
|----------------4---4-------------------------------------------|
|--------2---2-----------2-------0---0---2-----------------------|
|----------------------------2-----------------------------------|

 |        |        |        |
|----------------------------------------------------------------|
|----------------4-------0---2---0-------------------------------|
|--------2---2---------------------------2-----------------------|
|----------------------------------------------------------------|

 |        |        |        |
|----------------4---4-------------------------------------------|
|--------2---2-----------2---2-------------------2---------------|
|----2---------------------------2---2---2-----------------------|
|----------------------------------------------------------------|

 |        |        |        |
|----------------2---2-------------------------------------------|
|0-----------0-----------0---0-------------------0---0---0-------|
|--------------------------------0---0---0-----------------------|
|----------------------------------------------------------------|

 |        |        |        |
|----------------4---4-------------------------------------------|
|--------2---2-----------2---2-------------------2---2---2-------|
|----2---------------------------2---2---2-----------------------|
|----------------------------------------------------------------|

 |        |        |        |
|----------------2---2-------------------------------------------|
|0-----------0-----------0---0-------------------0---------------|
|--------------------------------0---0---0-----------------------|
|----------------------------------------------------------------|

 |        |        |        |
|----------------4---4-------------------------------------------|
|--------2---2---------------2-------------------2---2---2-------|
|----2---------------------------2---2---2-----------------------|
|----------------------------------------------------------------|

 |        |        |        |
|----------------2---2-------------------------------------------|
|0-----------0-----------0---0-------------------0---------------|
|--------------------------------0---0---0-----------------------|
|----------------------------------------------------------------|

 |        |        |        |
|----------------4---4-------------------------------------------|
|--------2---2-----------2---2-------------------2---2---2-------|
|----2---------------------------2---2---2-----------------------|
|----------------------------------------------------------------|

 |        |        |        |
|----------------2---2-------------------------------------------|
|0-----------0-----------0---0-------------------0---------------|
|--------------------------------0---0---0-----------------------|
|----------------------------------------------------------------|

 |        |        |        |
|----------------4---4-------------------------------------------|
|--------2---2-----------2---2-------------------2---2---2-------|
|----2---------------------------2---2---2-----------------------|
|----------------------------------------------------------------|

 |        |        |        |
|----------------2---2-------------------------------------------|
|0-----------0-----------0---0-------------------0---0---0-------|
|--------------------------------0---0---0-----------------------|
|----------------------------------------------------------------|

 |        |        |        |
|----------------4---4-------------------------------------------|
|--------2---2-----------2---2-------------------2---2---2-------|
|----2---------------------------2---2---2-----------------------|
|----------------------------------------------------------------|

 |        |        |        |
|----------------2---2-------------------------------------------|
|0-----------0-----------0---0-------------------0---------------|
|--------------------------------0---0---0-----------------------|
|----------------------------------------------------------------|

 |        |        |        |
|----------------------------------------------------------------|
|----------------4---4-------------------------------------------|
|--------2---2-----------2-------0---0---2-----------------------|
|----------------------------2-----------------------------------|

 |        |        |        |
|----------------------------------------------------------------|
|----------------4-------0---2---0-------------------------------|
|--------2---2---------------------------2-----------------------|
|----------------------------------------------------------------|

 |        |        |        |
|----------------------------------------------------------------|
|----------------4---4-------------------------------------------|
|--------2---2-----------2-------0---0---2-----------------------|
|----------------------------2-----------------------------------|

 |        |        |        |
|----------------------------------------------------------------|
|----------------4-------0---2---0-------------------------------|
|--------2---2---------------------------2-----------------------|
|----------------------------------------------------------------|

 |        |        |        |
|----------------------------------------------------------------|
|----------------4---4-------------------------------------------|
|--------2---2-----------2-------0---0---2-----------------------|
|----------------------------2-----------------------------------|

 |        |        |        |
|----------------------------------------------------------------|
|----------------4-------0---2---0-------------------------------|
|--------2---2---------------------------2-----------------------|
|----------------------------------------------------------------|

 |        |        |        |
|----------------------------------------------------------------|
|----------------4---4-------------------------------------------|
|--------2---2-----------2-------0---0---2-----------------------|
|----------------------------2-----------------------------------|

 |        |        |        |
|----------------------------------------------------------------|
|----------------4-------0---2---0-------------------------------|
|--------2---2---------------------------2-----------------------|
|----------------------------------------------------------------|

 |        |        |        |
|----------------------------------------------------------------|
|----------------4---4-------------------------------------------|
|--------2---2-----------2-------0---0---2-----------------------|
|----------------------------2-----------------------------------|

 |        |        |        |
|----------------------------------------------------------------|
|----------------4-------0---2---0-------------------------------|
|--------2---2---------------------------2-----------------------|
|----------------------------------------------------------------|

 |        |        |        |
|----------------------------------------------------------------|
|----------------4---4-------------------------------------------|
|--------2---2-----------2-------0---0---2-----------------------|
|----------------------------2-----------------------------------|

 |        |        |        |
|----------------------------------------------------------------|
|----------------4-------0---2---0-------------------------------|
|--------2---2---------------------------2-----------------------|
|----------------------------------------------------------------|

 |        |        |        |
|----------------------------------------------------------------|
|----------------4---4-------------------------------------------|
|--------2---2-----------2-------0---0---2-----------------------|
|----------------------------2-----------------------------------|

 |        |        |        |
|----------------------------------------------------------------|
|----------------4---4-------------------------------------------|
|--------2---2-----------2-------0---0---2-----------------------|
|----------------------------2-----------------------------------|

 |        |        |        |
|----------------------------------------------------------------|
|----------------4-------0---2---0-------------------------------|
|--------2---2---------------------------2-----------------------|
|----------------------------------------------------------------|

 |        |        |        |
|----------------------------------------------------------------|
|----------------4---4-------------------------------------------|
|--------2---2-----------2-------0---0---2-----------------------|
|----------------------------2-----------------------------------|

 |        |        |        |
|----------------------------------------------------------------|
|----------------4-------0---2---0-------------------------------|
|--------2---2---------------------------2-----------------------|
|----------------------------------------------------------------|

 |        |        |        |
|----------------------------------------------------------------|
|----------------4---4-------------------------------------------|
|--------2---2-----------2-------0---0---2-----------------------|
|----------------------------2-----------------------------------|

 |        |        |        |
|----------------------------------------------------------------|
|----------------4-------0---2---0-------------------------------|
|--------2---2---------------------------2-----------------------|
|----------------------------------------------------------------|

 |        |        |        |
|----------------------------------------------------------------|
|----------------4---4-------------------------------------------|
|--------2---2-----------2-------0---0---2-----------------------|
|----------------------------2-----------------------------------|

 |        |        |        |
|----------------------------------------------------------------|
|----------------4-------0---2---0-------------------------------|
|--------2---2---------------------------2-----------------------|
|----------------------------------------------------------------|

 |        |        |        |
|----------------------------------------------------------------|
|----------------4---4-------------------------------------------|
|--------2---2-----------2-------0---0---2-----------------------|
|----------------------------2-----------------------------------|

 |        |        |        |
|----------------------------------------------------------------|
|----------------4-------0---2---0-------------------------------|
|--------2---2---------------------------2-----------------------|
|----------------------------------------------------------------|

 |        |        |        |
|----------------------------------------------------------------|
|----------------4---4-------------------------------------------|
|--------2---2-----------2-------0---0---2-----------------------|
|----------------------------2-----------------------------------|

 |        |        |        |
|----------------------------------------------------------------|
|----------------4-------0---2---0-------------------------------|
|--------2---2---------------------------2-----------------------|
|----------------------------------------------------------------|

 |        |        |        |
|----------------------------------------------------------------|
|----------------4---4-------------------------------------------|
|--------2---2-----------2-------0---0---2-----------------------|
|----------------------------2-----------------------------------|

 |        |        |        |
|----------------------------------------------------------------|
|----------------4-------0---2---0-------------------------------|
|--------2---2---------------------------2-----------------------|
|----------------------------------------------------------------|

 |        |        |        |
|----------------------------------------------------------------|
|----------------4---4-------------------------------------------|
|--------2---2-----------2-------0---0---2-----------------------|
|----------------------------2-----------------------------------|

 |        |        |        |
|----------------------------------------------------------------|
|----------------4-------0---2---0-------------------------------|
|--------2---2---------------------------2-----------------------|
|----------------------------------------------------------------|

 |        |        |        |
|----------------4---4-------------------------------------------|
|--------2---2-----------2-----------------------2---2---2-------|
|----2---------------------------2---2---2-----------------------|
|----------------------------------------------------------------|

 |        |        |        |
|----------------2-----------------------------------------------|
|0-----------0-----------0---0-------------------0---------------|
|--------------------------------0---0---0-----------------------|
|----------------------------------------------------------------|

 |        |        |        |
|----------------4-----------------------------------------------|
|--------2---2-----------2---2-------------------2---------------|
|----2---------------------------2---2---2-----------------------|
|----------------------------------------------------------------|

 |        |        |        |
|----------------2---2-------------------------------------------|
|0-----------0-----------0-----------------------0---------------|
|--------------------------------0---0---0-----------------------|
|----------------------------------------------------------------|

 |        |        |        |
|----------------4---4-------------------------------------------|
|--------2---2-----------2---2-------------------2---------------|
|----2---------------------------2---2---2-----------------------|
|----------------------------------------------------------------|

 |        |        |        |
|----------------2---2-------------------------------------------|
|0-----------0-----------0---0-------------------0---0---0-------|
|--------------------------------0---0---0-----------------------|
|----------------------------------------------------------------|

 |        |        |        |
|----------------4---4-------------------------------------------|
|--------2---2-----------2-----------------------2---------------|
|----2---------------------------2-----------2-------------------|
|----------------------------------------------------------------|

 |        |        |        |
|----------------2---2-------------------------------------------|
|0-----------0-----------0---0-------------------0-------0-------|
|--------------------------------0---0---0-----------------------|
|----------------------------------------------------------------|

 |        |        |        |
|----------------------------------------------------------------|
|----------------------------------------------------------------|
|----------------------------------------------------------------|
|----------------------------------------------------------------|

 |        |        |        |
|----------------------------------------------------------------|
|----------------------------------------------------------------|
|----------------------------------------------------------------|
|----------------------------------------------------------------|

 |        |        |        |
|----------------------------------------------------------------|
|----------------4-----------------------------------------------|
|--------2---2-----------2-------0---0---2-----------------------|
|----------------------------2-----------------------------------|

 |        |        |        |
|----------------------------------------------------------------|
|----------------4-------0---2---0-------------------------------|
|--------2---2---------------------------2-----------------------|
|----------------------------------------------------------------|

 |        |        |        |
|----------------------------------------------------------------|
|----------------4-----------------------------------------------|
|--------2---2-----------2-------0---0---2-----------------------|
|----------------------------2-----------------------------------|

 |        |        |        |
|----------------------------------------------------------------|
|----------------4-------0---2---0-------------------------------|
|--------2---2---------------------------2-----------------------|
|----------------------------------------------------------------|

 |        |        |        |
|----------------------------------------------------------------|
|----------------4-----------------------------------------------|
|--------2---2-----------2-------0---0---2-----------------------|
|----------------------------2-----------------------------------|

 |        |        |        |
|----------------------------------------------------------------|
|----------------4-------0---2---0-------------------------------|
|--------2---2---------------------------2-----------------------|
|----------------------------------------------------------------|

 |        |        |        |
|----------------------------------------------------------------|
|----------------4-----------------------------------------------|
|--------2---2-----------2-------0---0---2-----------------------|
|----------------------------2-----------------------------------|

 |        |        |        |
|----------------------------------------------------------------|
|----------------4-------0---2---0-------------------------------|
|--------2---2---------------------------2-----------------------|
|----------------------------------------------------------------|

 |        |        |        |
|----------------------------------------------------------------|
|----------------4-----------------------------------------------|
|--------2---2-----------2-------0---0---2-----------------------|
|----------------------------2-----------------------------------|

 |        |        |        |
|----------------------------------------------------------------|
|----------------4-------0---2---0-------------------------------|
|--------2---2---------------------------2-----------------------|
|----------------------------------------------------------------|

 |        |        |        |
|----------------------------------------------------------------|
|----------------4-----------------------------------------------|
|--------2---2-----------2-------0---0---2-----------------------|
|----------------------------2-----------------------------------|

 |        |        |        |
|----------------------------------------------------------------|
|----------------4-------0---2---0-------------------------------|
|--------2---2---------------------------2-----------------------|
|----------------------------------------------------------------|



............................................................

Almost there ...

Sign in to get your own page with links to favourite songs and more. You are just one click away...

Login with Facebook Login with Google