Log in

One click and you are in

Login with Facebook Login with Google

Why sign up and log in

Guitar Tabs Explorer
Bob Marley tabs for Is this love

Guitar tabs

Bob Marley - Is this love

gtr.1 plays chords
gtr.2 plays solo-piece

Chords

 ?   A chord diagramD MajorD   A chord diagramA augmentedA   A chord diagramE MajorE
-2  -2  -0  -0
-2  -3  -2  -0
-2  -2  -2  -1
-4  -0  -2  -2
-   -   -0  -2
-   -   -   -0

                              1st time
-----------------------------|-----------|
-----------------------------|-----------|
---------------------------6-|--7p6--7p6-|
-----4--7~-4-----4----4--7---|-7----7----|
-4-7--------4--7----5--------|-----------|
-----------------------------|-----------|
2nd time
---------------|
---------------|
---------------|
--7-7-7-6-7-6-4|
---------------|
---------------|

Other versions of Is This Love

Is this loveChords
Is this love (Ver. 2)Chords
Is this love ukuleleChords

Almost there ...

Sign in to get your own page with links to favourite songs and more. You are just one click away...

Login with Facebook Login with Google