Exodus by Bob Marley

Exodus bass tab by Bob Marley

Bass tabs

Bob Marley_EXODUS.btab

TablEdited by Jan Bjorklund
You are welcome to request for tabs!
Fingering and positions as suggested by TablEdit, please use common sense.


TablEdited by Jan Bjorklund
Tuning : E A D G 	Time Signature: 4/4

 |        |        |        |
|----------------------------------------------------------------|
|----------------------------------------------------------------|
|0-----------------------0-----------------------0---------------|
|----------------3-----------------------3-----------------------|

 |        |        |        |
|----------------------------------------------------------------|
|----------------------------------------------------------------|
|--------3-------0-------------------------------0---------------|
|--------------------------------3-------4-----------------------|

 |        |        |        |
|----------------------------------------------------------------|
|----------------------------------------------------------------|
|0-----------------------0-----------------------0---------------|
|----------------3-----------------------3-----------------------|

 |        |        |        |
|----------------------------------------------------------------|
|----------------------------------------------------------------|
|3---------------0-------------------------------0---------------|
|--------------------------------3-------4-----------------------|

 |        |        |        |
|----------------------------------------------------------------|
|----------------------------------------------------------------|
|0-----------------------0-----------------------0-------0-------|
|----------------3-----------------------3-----------------------|

 |        |        |        |
|----------------------------------------1-------2---------------|
|------------------------2---------------------------------------|
|--------0-------3-----------------------------------------------|
|----------------------------------------------------------------|

 |        |        |        |
|----------------------------------------------------------------|
|----------------------------------------------------------------|
|0-----------------------0-----------------------0-------0-------|
|----------------3-----------------------3-----------------------|

 |        |        |        |
|--------------------------------0-------1-------2---------------|
|------------------------2---------------------------------------|
|--------0-------------------------------------------------------|
|----------------------------------------------------------------|

 |        |        |        |
|----------------------------------------------------------------|
|----------------------------------------------------------------|
|0-----------------------0-----------------------0-------0-------|
|----------------3-----------------------3-----------------------|

 |        |        |        |
|--------------------------------0-------1-------2---------------|
|------------------------2---------------------------------------|
|--------0-------3-----------------------------------------------|
|----------------------------------------------------------------|

 |        |        |        |
|----------------------------------------------------------------|
|----------------------------------------------------------------|
|0-------0-------0---------------2---------------2---------------|
|----------------------------------------------------------------|

 |        |        |        |
|----------------------------------------------------------------|
|--------------------------------0-------------------------------|
|3---------------3-----------------------------------------------|
|----------------------------------------------------------------|

 |        |        |        |
|----------------------------------------------------------------|
|----------------------------------------------------------------|
|0-----------------------0-----------------------0---------------|
|----------------3-----------------------3-----------------------|

 |        |        |        |
|----------------------------------------------------------------|
|----------------------------------------------------------------|
|--------3-------0-------------------------------0---------------|
|--------------------------------3-------4-----------------------|

 |        |        |        |
|----------------------------------------------------------------|
|----------------------------------------------------------------|
|0-----------------------0-----------------------0---------------|
|----------------3-----------------------3-----------------------|

 |        |        |        |
|----------------------------------------------------------------|
|----------------------------------------------------------------|
|3---------------0-------------------------------0---------------|
|--------------------------------3-------4-----------------------|

 |        |        |        |
|----------------------------------------------------------------|
|----------------------------------------------------------------|
|0-----------------------0-----------------------0---------------|
|----------------3-----------------------3-----------------------|

 |        |        |        |
|----------------------------------------------------------------|
|----------------------------------------------------------------|
|--------3-------0-------------------------------0---------------|
|--------------------------------3-------4-----------------------|

 |        |        |        |
|----------------------------------------------------------------|
|----------------------------------------------------------------|
|0-----------------------0-----------------------0---------------|
|----------------3-----------------------3-----------------------|

 |        |        |        |
|----------------------------------------------------------------|
|----------------------------------------------------------------|
|3---------------0-------------------------------0---------------|
|--------------------------------3-------4-----------------------|

 |        |        |        |
|----------------------------------------------------------------|
|----------------------------------------------------------------|
|0-----------------------0-----------------------0---------------|
|----------------3-----------------------3-----------------------|

 |        |        |        |
|----------------------------------------------------------------|
|----------------------------------------------------------------|
|--------3-------0-------------------------------0---------------|
|--------------------------------3-------4-----------------------|

 |        |        |        |
|----------------------------------------------------------------|
|----------------------------------------------------------------|
|0-----------------------0-----------------------0---------------|
|----------------3-----------------------3-----------------------|

 |        |        |        |
|----------------------------------------------------------------|
|----------------------------------------------------------------|
|3---------------0-------------------------------0---------------|
|--------------------------------3-------4-----------------------|

 |        |        |        |
|----------------------------------------------------------------|
|----------------------------------------------------------------|
|0-----------------------0-----------------------0---------------|
|----------------3-----------------------3-----------------------|

 |        |        |        |
|----------------------------------------------------------------|
|----------------------------------------------------------------|
|--------3-------0-------------------------------0---------------|
|--------------------------------3-------4-----------------------|

 |        |        |        |
|----------------------------------------------------------------|
|----------------------------------------------------------------|
|0-----------------------0-----------------------0---------------|
|----------------3-----------------------3-----------------------|

 |        |        |        |
|----------------------------------------------------------------|
|----------------------------------------------------------------|
|3---------------0-------------------------------0---------------|
|--------------------------------3-------4-----------------------|

 |        |        |        |
|----------------------------------------------------------------|
|----------------------------------------------------------------|
|0-----------------------0-----------------------0-------0-------|
|----------------3-----------------------3-----------------------|

 |        |        |        |
|--------------------------------0-------1-------2---------------|
|------------------------2---------------------------------------|
|--------0-------3-----------------------------------------------|
|----------------------------------------------------------------|

 |        |        |        |
|----------------------------------------------------------------|
|----------------------------------------------------------------|
|0-----------------------0-----------------------0-------0-------|
|----------------3-----------------------3-----------------------|

 |        |        |        |
|--------------------------------0-------1-------2---------------|
|------------------------2---------------------------------------|
|--------0-------3-----------------------------------------------|
|----------------------------------------------------------------|

 |        |        |        |
|----------------------------------------------------------------|
|----------------------------------------------------------------|
|0-----------------------0-----------------------0-------0-------|
|----------------3-----------------------3-----------------------|

 |        |        |        |
|--------------------------------0-------1-------2---------------|
|------------------------2---------------------------------------|
|--------0-------------------------------------------------------|
|----------------------------------------------------------------|

 |        |        |        |
|----------------------------------------------------------------|
|----------------------------------------------------------------|
|0-----------------------0-----------------------0-------0-------|
|----------------3-----------------------3-----------------------|

 |        |        |        |
|--------------------------------0-------1-------2---------------|
|------------------------2---------------------------------------|
|--------0-------------------------------------------------------|
|----------------------------------------------------------------|

 |        |        |        |
|----------------------------------------------------------------|
|----------------------------------------------------------------|
|0-----------------------0-----------------------0-------0-------|
|----------------3-----------------------3-----------------------|

 |        |        |        |
|--------------------------------0-------1-------2---------------|
|------------------------2---------------------------------------|
|--------0-------------------------------------------------------|
|----------------------------------------------------------------|

 |        |        |        |
|----------------------------------------------------------------|
|----------------------------------------------------------------|
|0-----------------------0-----------------------0-------0-------|
|----------------3-----------------------3-----------------------|

 |        |        |        |
|--------------------------------0-------1-------2---------------|
|------------------------2---------------------------------------|
|--------0-------3-----------------------------------------------|
|----------------------------------------------------------------|

 |        |        |        |
|----------------------------------------------------------------|
|----------------------------------------------------------------|
|0-----------------------0-----------------------0-------0-------|
|----------------3-----------------------3-----------------------|

 |        |        |        |
|--------------------------------0-------1-------2---------------|
|------------------------2---------------------------------------|
|--------0-------3-----------------------------------------------|
|----------------------------------------------------------------|

 |        |        |        |
|----------------------------------------------------------------|
|----------------------------------------------------------------|
|0-------0-------0---------------2---------------2---------------|
|----------------------------------------------------------------|

 |        |        |        |
|----------------------------------------------------------------|
|--------------------------------0-------2-----------------------|
|3---------------3-----------------------------------------------|
|----------------------------------------------------------------|

 |        |        |        |
|----------------------------------------------------------------|
|----------------------------------------------------------------|
|0-----------------------0-----------------------0---------------|
|----------------3-----------------------3-----------------------|

 |        |        |        |
|----------------------------------------------------------------|
|----------------------------------------------------------------|
|--------3-------0-------------------------------0---------------|
|--------------------------------3-------4-----------------------|

 |        |        |        |
|----------------------------------------------------------------|
|----------------------------------------------------------------|
|0-----------------------0-----------------------0---------------|
|----------------3-----------------------3-----------------------|

 |        |        |        |
|----------------------------------------------------------------|
|----------------------------------------------------------------|
|3---------------0-------------------------------0---------------|
|--------------------------------3-------4-----------------------|

 |        |        |        |
|----------------------------------------------------------------|
|----------------------------------------------------------------|
|0-----------------------0-----------------------0---------------|
|----------------3-----------------------3-----------------------|

 |        |        |        |
|----------------------------------------------------------------|
|----------------------------------------------------------------|
|--------3-------0-------------------------------0---------------|
|--------------------------------3-------4-----------------------|

 |        |        |        |
|----------------------------------------------------------------|
|----------------------------------------------------------------|
|0-----------------------0-----------------------0-------0-------|
|----------------3-----------------------3-----------------------|

 |        |        |        |
|----------------------------------------------------------------|
|----------------------------------------------------------------|
|3-------3-------3-----------------------------------------------|
|--------------------------------3---------------4---------------|

 |        |        |        |
|----------------------------------------------------------------|
|----------------------------------------------------------------|
|0-----------------------0-----------------------0---------------|
|----------------3-----------------------3-----------------------|

 |        |        |        |
|----------------------------------------------------------------|
|----------------------------------------------------------------|
|--------3-------0-------------------------------0---------------|
|--------------------------------3-------4-----------------------|

 |        |        |        |
|----------------------------------------------------------------|
|----------------------------------------------------------------|
|0-----------------------0-----------------------0---------------|
|----------------3-----------------------3-----------------------|

 |        |        |        |
|----------------------------------------------------------------|
|----------------------------------------------------------------|
|3---------------0-------------------------------0---------------|
|--------------------------------3-------4-----------------------|

 |        |        |        |
|----------------------------------------------------------------|
|----------------------------------------------------------------|
|0-----------------------0-----------------------0-------0-------|
|----------------3-----------------------3-----------------------|

 |        |        |        |
|--------------------------------0-------1-------2---------------|
|------------------------2---------------------------------------|
|--------0-------3-----------------------------------------------|
|----------------------------------------------------------------|

 |        |        |        |
|----------------------------------------------------------------|
|----------------------------------------------------------------|
|0-----------------------0-----------------------0-------0-------|
|----------------3-----------------------3-----------------------|

 |        |        |        |
|--------------------------------0-------1-------2---------------|
|------------------------2---------------------------------------|
|--------0-------3-----------------------------------------------|
|----------------------------------------------------------------|

 |        |        |        |
|----------------------------------------------------------------|
|----------------------------------------------------------------|
|0-------0-------0---------------2---------------2---------------|
|----------------------------------------------------------------|

 |        |        |        |
|----------------------------------------------------------------|
|--------------------------------0-------2-----------------------|
|3---------------3-----------------------------------------------|
|----------------------------------------------------------------|

 |        |        |        |
|----------------------------------------------------------------|
|----------------------------------------------------------------|
|0-----------------------0-----------------------0---------------|
|----------------3-----------------------3-----------------------|

 |        |        |        |
|----------------------------------------------------------------|
|----------------------------------------------------------------|
|--------3-------0-------------------------------0---------------|
|--------------------------------3-------4-----------------------|

 |        |        |        |
|----------------------------------------------------------------|
|----------------------------------------------------------------|
|0-----------------------0-----------------------0---------------|
|----------------3-----------------------3-----------------------|

 |        |        |        |
|----------------------------------------------------------------|
|----------------------------------------------------------------|
|3---------------0-------------------------------0---------------|
|--------------------------------3-------4-----------------------|

 |        |        |        |
|----------------------------------------------------------------|
|----------------------------------------------------------------|
|0-----------------------0-----------------------0---------------|
|----------------3-----------------------3-----------------------|

 |        |        |        |
|----------------------------------------------------------------|
|----------------------------------------------------------------|
|--------3-------0-------------------------------0---------------|
|--------------------------------3-------4-----------------------|

 |        |        |        |
|----------------------------------------------------------------|
|----------------------------------------------------------------|
|0-----------------------0-----------------------0---------------|
|----------------3-----------------------3-----------------------|

 |        |        |        |
|----------------------------------------------------------------|
|----------------------------------------------------------------|
|3---------------0-------------------------------0---------------|
|--------------------------------3-------4-----------------------|

 |        |        |        |
|----------------------------------------------------------------|
|----------------------------------------------------------------|
|0-----------------------0-----------------------0---------------|
|----------------3-----------------------3-----------------------|

 |        |        |        |
|----------------------------------------------------------------|
|----------------------------------------------------------------|
|--------3-------0-------------------------------0---------------|
|--------------------------------3-------4-----------------------|

 |        |        |        |
|----------------------------------------------------------------|
|----------------------------------------------------------------|
|0-----------------------0-----------------------0---------------|
|----------------3-----------------------3-----------------------|

 |        |        |        |
|----------------------------------------------------------------|
|----------------------------------------------------------------|
|3---------------0-------------------------------0---------------|
|--------------------------------3-------4-----------------------|

 |        |        |        |
|----------------------------------------------------------------|
|----------------------------------------------------------------|
|0-----------------------0-----------------------0---------------|
|----------------3-----------------------3-----------------------|

 |        |        |        |
|----------------------------------------------------------------|
|----------------------------------------------------------------|
|--------3-------0-------------------------------0---------------|
|--------------------------------3-------4-----------------------|

 |        |        |        |
|----------------------------------------------------------------|
|----------------------------------------------------------------|
|0-----------------------0-----------------------0---------------|
|----------------3-----------------------3-----------------------|

 |        |        |        |
|----------------------------------------------------------------|
|----------------------------------------------------------------|
|3---------------0-------------------------------0---------------|
|--------------------------------3-------4-----------------------|

 |        |        |        |
|----------------------------------------------------------------|
|----------------------------------------------------------------|
|0-----------------------0-----------------------0-------0-------|
|----------------3-----------------------3-----------------------|

 |        |        |        |
|--------------------------------0-------1-------2---------------|
|------------------------2---------------------------------------|
|--------0-------3-----------------------------------------------|
|----------------------------------------------------------------|

 |        |        |        |
|----------------------------------------------------------------|
|----------------------------------------------------------------|
|0-----------------------0-----------------------0-------0-------|
|----------------3-----------------------3-----------------------|

 |        |        |        |
|----------------------------------------1-------2---------------|
|------------------------2---------------------------------------|
|--------0-------3-----------------------------------------------|
|----------------------------------------------------------------|

 |        |        |        |
|----------------------------------------------------------------|
|----------------------------------------------------------------|
|0-----------------------0-----------------------0-------0-------|
|----------------3-----------------------3-----------------------|

 |        |        |        |
|--------------------------------0-------1-------2---------------|
|------------------------2---------------------------------------|
|--------0-------3-----------------------------------------------|
|----------------------------------------------------------------|

 |        |        |        |
|----------------------------------------------------------------|
|----------------------------------------------------------------|
|0-----------------------0-----------------------0-------0-------|
|----------------3-----------------------3-----------------------|

 |        |        |        |
|--------------------------------0-------1-------2---------------|
|------------------------2---------------------------------------|
|--------0-------3-----------------------------------------------|
|----------------------------------------------------------------|

 |        |        |        |
|----------------------------------------------------------------|
|----------------------------------------------------------------|
|0-----------------------0-----------------------0---------------|
|----------------3-----------------------3-----------------------|

 |        |        |        |
|----------------------------------------------------------------|
|----------------------------------------------------------------|
|--------3-------0-------------------------------0---------------|
|--------------------------------3-------4-----------------------|

 |        |        |        |
|----------------------------------------------------------------|
|----------------------------------------------------------------|
|0-----------------------0-----------------------0-------0-------|
|----------------3-----------------------3-----------------------|

 |        |        |        |
|----------------------------------------------------------------|
|----------------------------------------------------------------|
|3-------3-------3-----------------------------------------------|
|--------------------------------0---------------3---------------|

 |        |        |        |
|----------------------------------------------------------------|
|----------------------------------------------------------------|
|0-----------------------0-----------------------0---------------|
|----------------3-----------------------3-----------------------|

 |        |        |        |
|----------------------------------------------------------------|
|----------------------------------------------------------------|
|--------3-------0-------------------------------0---------------|
|--------------------------------3-------4-----------------------|

 |        |        |        |
|----------------------------------------------------------------|
|----------------------------------------------------------------|
|0-----------------------0-----------------------0---------------|
|----------------3-----------------------3-----------------------|

 |        |        |        |
|----------------------------------------------------------------|
|----------------------------------------------------------------|
|3---------------0-------------------------------0---------------|
|--------------------------------3-------4-----------------------|

 |        |        |        |
|----------------------------------------------------------------|
|----------------------------------------------------------------|
|0-----------------------0-----------------------0---------------|
|----------------3-----------------------3-----------------------|

 |        |        |        |
|----------------------------------------------------------------|
|----------------------------------------------------------------|
|--------3-------0-------------------------------0---------------|
|--------------------------------3-------4-----------------------|

 |        |        |        |
|----------------------------------------------------------------|
|----------------------------------------------------------------|
|0-----------------------0-----------------------0---------------|
|----------------3-----------------------3-----------------------|

 |        |        |        |
|----------------------------------------------------------------|
|----------------------------------------------------------------|
|3---------------0-------------------------------0---------------|
|--------------------------------3-------4-----------------------|

 |        |        |        |
|----------------------------------------------------------------|
|----------------------------------------------------------------|
|0-----------------------0-----------------------0-------0-------|
|----------------3-----------------------3-----------------------|

 |        |        |        |
|--------------------------------0-------1-------2---------------|
|------------------------2---------------------------------------|
|--------0-------3-----------------------------------------------|
|----------------------------------------------------------------|

 |        |        |        |
|----------------------------------------------------------------|
|----------------------------------------------------------------|
|0-----------------------0-----------------------0-------0-------|
|----------------3-----------------------3-----------------------|

 |        |        |        |
|----------------------------------------------------------------|
|----------------------------------------------------------------|
|----------------------------------------------------------------|
|----------------------------------------------------------------|

 |        |        |        |
|----------------------------------------------------------------|
|----------------------------------------------------------------|
|0-----------------------0-----------------------0-------0-------|
|----------------3-----------------------3-----------------------|

 |        |        |        |
|--------------------------------0-------1-------2---------------|
|------------------------2---------------------------------------|
|--------0-------3-----------------------------------------------|
|----------------------------------------------------------------|

 |        |        |        |
|----------------------------------------------------------------|
|----------------------------------------------------------------|
|0-----------------------0-----------------------0-------0-------|
|----------------3-----------------------3-----------------------|

 |        |        |        |
|--------------------------------0-------1-------2---------------|
|------------------------2---------------------------------------|
|--------0-------3-----------------------------------------------|
|----------------------------------------------------------------|

 |        |        |        |
|----------------------------------------------------------------|
|----------------------------------------------------------------|
|0-----------------------0-----------------------0-------0-------|
|----------------3-----------------------3-----------------------|

 |        |        |        |
|--------------------------------0-------1-------2---------------|
|------------------------2---------------------------------------|
|--------0-------3-----------------------------------------------|
|----------------------------------------------------------------|

 |        |        |        |
|----------------------------------------------------------------|
|----------------------------------------------------------------|
|0-----------------------0-----------------------0-------0-------|
|----------------3-----------------------3-----------------------|

 |        |        |        |
|--------------------------------0-------1-------2---------------|
|------------------------2---------------------------------------|
|--------0-------3-----------------------------------------------|
|----------------------------------------------------------------|

 |        |        |        |
|----------------------------------------------------------------|
|----------------------------------------------------------------|
|0-----------------------0-----------------------0-------0-------|
|----------------3-----------------------3-----------------------|

 |        |        |        |
|--------------------------------0-------1-------2---------------|
|------------------------2---------------------------------------|
|--------0-------3-----------------------------------------------|
|----------------------------------------------------------------|

 |        |        |        |
|----------------------------------------------------------------|
|----------------------------------------------------------------|
|0-------0-------0---------------2---------------2---------------|
|----------------------------------------------------------------|

 |        |        |        |
|----------------------------------------------------------------|
|--------------------------------0-------2-----------------------|
|3---------------3-----------------------------------------------|
|----------------------------------------------------------------|

 |        |        |        |
|----------------------------------------------------------------|
|----------------------------------------------------------------|
|0-----------------------0-----------------------0---------------|
|----------------3-----------------------3-----------------------|

 |        |        |        |
|----------------------------------------------------------------|
|----------------------------------------------------------------|
|--------3-------0-------------------------------0---------------|
|--------------------------------3-------4-----------------------|

 |        |        |        |
|----------------------------------------------------------------|
|----------------------------------------------------------------|
|0-----------------------0-----------------------0---------------|
|----------------3-----------------------3-----------------------|

 |        |        |        |
|----------------------------------------------------------------|
|----------------------------------------------------------------|
|3---------------0-------------------------------0---------------|
|--------------------------------3-------4-----------------------|

 |        |        |        |
|----------------------------------------------------------------|
|----------------------------------------------------------------|
|0-----------------------0-----------------------0---------------|
|----------------3-----------------------3-----------------------|

 |        |        |        |
|----------------------------------------------------------------|
|----------------------------------------------------------------|
|--------3-------0-------------------------------0---------------|
|--------------------------------3-------4-----------------------|

 |        |        |        |
|----------------------------------------------------------------|
|----------------------------------------------------------------|
|0-----------------------0-----------------------0-------0-------|
|----------------3-----------------------3-----------------------|

 |        |        |        |
|----------------------------------------------------------------|
|----------------------------------------------------------------|
|3-------3-------3-----------------------------------------------|
|--------------------------------0---------------3---------------|

 |        |        |        |
|----------------------------------------------------------------|
|----------------------------------------------------------------|
|0-----------------------0-----------------------0---------------|
|----------------3-----------------------3-----------------------|

 |        |        |        |
|----------------------------------------------------------------|
|----------------------------------------------------------------|
|--------3-------0-------------------------------0---------------|
|--------------------------------3-------4-----------------------|

 |        |        |        |
|----------------------------------------------------------------|
|----------------------------------------------------------------|
|0-----------------------0-----------------------0---------------|
|----------------3-----------------------3-----------------------|

 |        |        |        |
|----------------------------------------------------------------|
|----------------------------------------------------------------|
|3---------------0-------------------------------0---------------|
|--------------------------------3-------4-----------------------|

 |        |        |        |
|----------------------------------------------------------------|
|----------------------------------------------------------------|
|0-----------------------0-----------------------0---------------|
|----------------3-----------------------3-----------------------|

 |        |        |        |
|----------------------------------------------------------------|
|----------------------------------------------------------------|
|--------3-------0-------------------------------0---------------|
|--------------------------------3-------4-----------------------|

 |        |        |        |
|----------------------------------------------------------------|
|----------------------------------------------------------------|
|0-----------------------0-----------------------0---------------|
|----------------3-----------------------3-----------------------|

 |        |        |        |
|----------------------------------------------------------------|
|----------------------------------------------------------------|
|3---------------0-------------------------------0---------------|
|--------------------------------3-------4-----------------------|

 |        |        |        |
|----------------------------------------------------------------|
|----------------------------------------------------------------|
|0-----------------------0-----------------------0-------0-------|
|----------------3-----------------------3-----------------------|

 |        |        |        |
|--------------------------------0-------1-------2---------------|
|------------------------2---------------------------------------|
|--------0-------3-----------------------------------------------|
|----------------------------------------------------------------|

 |        |        |        |
|----------------------------------------------------------------|
|----------------------------------------------------------------|
|0-----------------------0-----------------------0-------0-------|
|----------------3-----------------------3-----------------------|

 |        |        |        |
|--------------------------------0-------1-------2---------------|
|------------------------2---------------------------------------|
|--------0-------3-----------------------------------------------|
|----------------------------------------------------------------|

 |        |        |        |
|----------------------------------------------------------------|
|----------------------------------------------------------------|
|0-----------------------0-----------------------0-------0-------|
|----------------3-----------------------3-----------------------|

 |        |        |        |
|--------------------------------0-------1-------2---------------|
|------------------------2---------------------------------------|
|--------0-------3-----------------------------------------------|
|----------------------------------------------------------------|

 |        |        |        |
|----------------------------------------------------------------|
|----------------------------------------------------------------|
|0-------0-------0---------------2---------------2---------------|
|----------------------------------------------------------------|

 |        |        |        |
|----------------------------------------------------------------|
|--------------------------------0-------2-----------------------|
|3---------------3-----------------------------------------------|
|----------------------------------------------------------------|

 |        |        |        |
|----------------------------------------------------------------|
|----------------------------------------------------------------|
|----------------------------------------------------------------|
|----------------------------------------------------------------|

 |        |        |        |
|----------------------------------------------------------------|
|----------------------------------------------------------------|
|----------------------------------------------------------------|
|----------------------------------------------------------------|

 |        |        |        |
|----------------------------------------------------------------|
|----------------------------------------------------------------|
|0---------------------------------------------------------------|
|----------------------------------------------------------------|

 |        |        |        |
|----------------------------------------------------------------|
|----------------------------------------------------------------|
|----------------------------------------------------------------|
|----------------------------------------------------------------|

 |        |        |        |
|----------------------------------------------------------------|
|----------------------------------------------------------------|
|0-------------------------------------------------------0-------|
|----------------------------------------------------------------|

 |        |        |        |
|----------------------------------------------------------------|
|----------------------------------------------------------------|
|0---------------------------------------------------------------|
|----------------------------------------------------------------|

 |        |        |        |
|----------------------------------------------------------------|
|----------------------------------------------------------------|
|0-----------------------0-------------------------------0-------|
|----------------------------------------------------------------|

 |        |        |        |
|----------------------------------------------------------------|
|----------------------------------------------------------------|
|3---------------------------------------------------------------|
|--------------------------------0-------------------------------|

 |        |        |        |
|----------------------------------------------------------------|
|----------------------------------------------------------------|
|0-----------------------0-----------------------0---------------|
|----------------3-----------------------3-----------------------|

 |        |        |        |
|----------------------------------------------------------------|
|----------------------------------------------------------------|
|--------3-------0-------------------------------0---------------|
|--------------------------------3-------4-----------------------|

 |        |        |        |
|----------------------------------------------------------------|
|----------------------------------------------------------------|
|0-----------------------0-----------------------0---------------|
|----------------3-----------------------3-----------------------|

 |        |        |        |
|----------------------------------------------------------------|
|----------------------------------------------------------------|
|3---------------0-------------------------------0---------------|
|--------------------------------3-------4-----------------------|

 |        |        |        |
|----------------------------------------------------------------|
|----------------------------------------------------------------|
|0-----------------------0-----------------------0---------------|
|----------------3-----------------------3-----------------------|

 |        |        |        |
|----------------------------------------------------------------|
|----------------------------------------------------------------|
|--------3-------0-------------------------------0---------------|
|--------------------------------3-------4-----------------------|

 |        |        |        |
|----------------------------------------------------------------|
|----------------------------------------------------------------|
|0-----------------------0-----------------------0---------------|
|----------------3-----------------------3-----------------------|

 |        |        |        |
|----------------------------------------------------------------|
|----------------------------------------------------------------|
|3---------------0-------------------------------0---------------|
|--------------------------------3-------4-----------------------|

 |        |        |        |
|----------------------------------------------------------------|
|----------------------------------------------------------------|
|0-----------------------0-----------------------0-------0-------|
|----------------3-----------------------3-----------------------|

 |        |        |        |
|--------------------------------0-------1-------2---------------|
|------------------------2---------------------------------------|
|--------0-------3-----------------------------------------------|
|----------------------------------------------------------------|

 |        |        |        |
|----------------------------------------------------------------|
|----------------------------------------------------------------|
|0-----------------------0-----------------------0-------0-------|
|----------------3-----------------------3-----------------------|

 |        |        |        |
|--------------------------------0-------1-------2---------------|
|------------------------2---------------------------------------|
|--------0-------3-----------------------------------------------|
|----------------------------------------------------------------|

 |        |        |        |
|----------------------------------------------------------------|
|----------------------------------------------------------------|
|0-----------------------0-----------------------0-------0-------|
|----------------3-----------------------3-----------------------|

 |        |        |        |
|--------------------------------0-------1-------2---------------|
|------------------------2---------------------------------------|
|--------0-------3-----------------------------------------------|
|----------------------------------------------------------------|

 |        |        |        |
|----------------------------------------------------------------|
|----------------------------------------------------------------|
|0-----------------------0-----------------------0-------0-------|
|----------------3-----------------------3-----------------------|

 |        |        |        |
|--------------------------------0-------1-------2---------------|
|------------------------2---------------------------------------|
|--------0-------3-----------------------------------------------|
|----------------------------------------------------------------|

 |        |        |        |
|----------------------------------------------------------------|
|----------------------------------------------------------------|
|0-----------------------0-----------------------0-------0-------|
|----------------3-----------------------3-----------------------|

 |        |        |        |
|--------------------------------0-------1-------2---------------|
|------------------------2---------------------------------------|
|--------0-------3-----------------------------------------------|
|----------------------------------------------------------------|

 |        |        |        |
|----------------------------------------------------------------|
|----------------------------------------------------------------|
|0-------0-------0---------------2---------------2---------------|
|----------------------------------------------------------------|

 |        |        |        |
|----------------------------------------------------------------|
|--------------------------------0-------2-----------------------|
|3-------3-------3-----------------------------------------------|
|----------------------------------------------------------------|

 | no.      |        |        |
|----------------------------------------------------------------|
|----------------------------------------------------------------|
|0-----------------------0-----------------------0---------------|
|----------------3-----------------------3-----------------------|

 |        |        |        |
|----------------------------------------------------------------|
|----------------------------------------------------------------|
|--------3-------0-------------------------------0---------------|
|--------------------------------3-------4-----------------------|

 |        |        |        |
|----------------------------------------------------------------|
|----------------------------------------------------------------|
|0-----------------------0-----------------------0---------------|
|----------------3-----------------------3-----------------------|

 |        |        |        |
|------------------------0-------2-------2-------2---------------|
|----------------2-----------------------------------------------|
|--------3-------------------------------------------------------|
|----------------------------------------------------------------|



m/


............................................................

Find guitar tabs and chords

A B C D E F G H I J K L M N O P Q R S T U V W X Y Z #