Log in

One click and you are in

Login with Facebook Login with Google

Why sign up and log in

Guitar Tabs Explorer
Bob Marley bass tabs for Could you be loved

Bass tabs

bob marley/could_you_be_loved.btab

TablEdited by Jan Bjorklund  <jani_bjorklund@yahoo.se>
You are welcome to request for tabs!
Fingering and positions as suggested by TablEdit, please use common sense.
TablEdited by Jan Bjorklund

Tuning : E A D G 	Time Signature: 4/4

 |        |        |        |
|------------------------0---------------------------------------|
|------------1---------------------------1-------0---------------|
|3---------------------------------------------------------------|
|----------------------------------------------------------------|

 |        |        |        |
|------------------------0---------------------------------------|
|------------1-------------------1-------------------------------|
|3---------------------------------------------------------------|
|----------------------------------------------------------------|

 |        |        |        |
|----------------------------------------------------------------|
|1---1-----------------------0---1---1---------------------------|
|------------------------------------------------------------1---|
|----------------------------------------------------------------|

 |        |        |        |
|------------------------------------------------------------0---|
|----------------------------------------------------------------|
|3---3-----------------------1---3---3---------------------------|
|----------------------------------------------------------------|

 |        |        |        |
|1---1-----------------------0---1---1---------------------------|
|------------------------------------------------------------0---|
|----------------------------------------------------------------|
|----------------------------------------------------------------|

 |        |        |        |
|----------------------------------------------------------------|
|1---1---------------------------1-------------------------------|
|------------3-------1---3-----------------------1---------------|
|----------------------------------------------------------------|

 |        |        |        |
|----------------0-----------------------------------------------|
|1-------3-------------------------------------------------------|
|------------------------3-----------------------------------3---|
|----------------------------------------------------------------|

 |        |        |        |
|----------------0-----------------------------------------------|
|1-------3---------------------------------------------------1---|
|------------------------3---------------------------------------|
|----------------------------------------------------------------|

 |        |        |        |
|----------------------------------------------------------------|
|3---3-----------------------1---3---3-----------------------1---|
|----------------------------------------------------------------|
|----------------------------------------------------------------|

 |        |        |        |
|----------------------------------------------------------------|
|3---3-----------------------1---3---3---------------------------|
|------------------------------------------------------------3---|
|----------------------------------------------------------------|

 |        |        |        |
|----------------0-----------------------------------------------|
|1-------3-------------------------------------------------------|
|------------------------3-----------------------------------3---|
|----------------------------------------------------------------|

 |        |        |        |
|----------------0-------------------------------------------0---|
|1-------3-------------------------------------------------------|
|------------------------3---------------------------------------|
|----------------------------------------------------------------|

 |        |        |        |
|----------------8-------------------------------7---------------|
|6---6-----------------------6---5---5---------------------------|
|----------------------------------------------------------------|
|----------------------------------------------------------------|

 |        |        |        |
|----------------------------------------------------------------|
|3-------------------------------3-------------------------------|
|----------------3-------------------------------------------3---|
|----------------------------------------------------------------|

 |        |        |        |
|------------------------5---------------------------------------|
|--------3-------5-----------------------------------------------|
|6-----------------------------------------------------------3---|
|----------------------------------------------------------------|

 |        |        |        |
|----------------0-------------------------------------------0---|
|1-------3-------------------------------------------------------|
|------------------------3---------------------------------------|
|----------------------------------------------------------------|

 |        |        |        |
|----------------8---8---------------------------7---7-----------|
|6---6-------6---------------6---5---5-------5---------------8---|
|----------------------------------------------------------------|
|----------------------------------------------------------------|

 |        |        |        |
|3---3-----------------------3---3---3---------------------------|
|------------3---3---3---------------------------------------1---|
|----------------------------------------------------------------|
|----------------------------------------------------------------|

 |        |        |        |
|----------------------------------------------------------------|
|1---1-----------------------0---1---1---------------------------|
|------------------------------------------------------------1---|
|----------------------------------------------------------------|

 |        |        |        |
|----------------------------------------------------------------|
|----------------------------------------------------------------|
|3---3-----------------------1---3---3---------------------------|
|------------------------------------------------------------3---|

 |        |        |        |
|----------------------------------------------------------------|
|------------------------------------------------------------0---|
|----------------------------------------------------------------|
|4---4-----------------------3---4---4---------------------------|

 |        |        |        |
|----------------------------------------------------------------|
|1---1---------------------------1-------1-----------------------|
|------------3-------1---3-----------------------1---------------|
|----------------------------------------------------------------|

 |        |        |        |
|----------------------------------------------------0-----------|
|----------------------------------------------------------------|
|3-------3---------------1-------3-------3-----------------------|
|----------------------------------------------------------------|

 |        |        |        |
|------------------------------------------------0---------------|
|----------------------------------------------------------------|
|1-----------3-----------1-------3-------3-----------3-----------|
|----------------------------------------------------------------|

 |        |        |        |
|----------------------------------------------------0-----------|
|----------------------------------------------------------------|
|1-----------3-----------1-------3-------3-----------------------|
|----------------------------------------------------------------|

 |        |        |        |
|--------------------------------------------0-------------------|
|----------------------------------------------------------------|
|1-----------3-----------1-------3---------------3---------------|
|----------------------------------------------------------------|

 |        |        |        |
|----------------------------------------------------0-----------|
|----------------------------------------------------------------|
|1-----------3-----------1-------3-------3-----------------------|
|----------------------------------------------------------------|

 |        |        |        |
|------------------------------------------------0---0-----------|
|----------------------------------------------------------------|
|1-----------3-----------1-------3-------3-----------------------|
|----------------------------------------------------------------|

 |        |        |        |
|----------------------------------------------------0-----------|
|----------------------------------------------------------------|
|1-----------3-----------1-------3-------3-----------------------|
|----------------------------------------------------------------|

 |        |        |        |
|------------------------------------------------5---------------|
|----------------------------------------5-----------------------|
|------------3-------------------3-------------------------------|
|6-----------------------6---------------------------------------|

 |        |        |        |
|----------------------------------------0-----------------------|
|----------------------------------------------------------------|
|1-----------3-----------1-------3---------------3---------------|
|----------------------------------------------------------------|

 |        |        |        |
|------------------------0---------------------------------------|
|------------1---------------------------1-------0---------------|
|3---------------------------------------------------------------|
|----------------------------------------------------------------|

 |        |        |        |
|------------------------0---------------------------------------|
|------------1---------------------------1-------0-----------1---|
|3---------------------------------------------------------------|
|----------------------------------------------------------------|

 |        |        |        |
|----------------------------------------------------------------|
|3---3-----------------------1---3---3-----------------------1---|
|----------------------------------------------------------------|
|----------------------------------------------------------------|

 |        |        |        |
|----------------------------------------------------------------|
|3---3-----------------------1---3---3---------------------------|
|------------------------------------------------------------1---|
|----------------------------------------------------------------|

 |        |        |        |
|------------------------0---------------------------------------|
|------------1---------------------------1-------0---------------|
|3-----------------------------------------------------------1---|
|----------------------------------------------------------------|

 |        |        |        |
|------------------------0---------------------------------------|
|------------1---------------------------1-------0-----------1---|
|3---------------------------------------------------------------|
|----------------------------------------------------------------|

 |        |        |        |
|------------------------0-----------------------------------0---|
|------------1---------------------------1-------0---------------|
|3---------------------------------------------------------------|
|----------------------------------------------------------------|

 |        |        |        |
|----------------8---8---------------------------7---7-----------|
|6---6-------6---------------6---5---5-------5---------------5---|
|----------------------------------------------------------------|
|----------------------------------------------------------------|

 |        |        |        |
|----------------------------------------------------------------|
|3---3-----------------------3---3---3---------------------------|
|------------3---3---3---------------------------------------1---|
|----------------------------------------------------------------|

 |        |        |        |
|------------------------0---------------------------------------|
|----------------1-----------------------1-------0---------------|
|3-----------------------------------------------------------1---|
|----------------------------------------------------------------|

 |        |        |        |
|------------------------0-----------------------------------0---|
|----------------1-----------------------1-------0---------------|
|3---------------------------------------------------------------|
|----------------------------------------------------------------|

 |        |        |        |
|----------------8---8---------------------------7---7-----------|
|6---6-------6---------------6---5---5-------5---------------5---|
|----------------------------------------------------------------|
|----------------------------------------------------------------|

 |        |        |        |
|------------10--10--10------------------------------------------|
|8---8-----------------------8---8---8-------8---------------8---|
|------------------------------------------------8---------------|
|----------------------------------------------------------------|

 |        |        |        |
|------------10--10--10------------------------------------------|
|8---8-----------------------8---8---8-------8-------------------|
|------------------------------------------------8---------------|
|----------------------------------------------------------------|

 |        |        |        |
|------------------------------------------------5---------------|
|----------------------------------------5---5-------------------|
|------------3-------------------3-------------------------------|
|6-----------------------6---------------------------------------|

 |        |        |        |
|------------------------------------------------5---------------|
|--------------------------------------------5-----------5-------|
|------------3-------------------3-------------------------------|
|6-----------------------6---------------------------------------|

 |        |        |        |
|------------------------------------------------5---------------|
|----------------------------------------5---5-------------------|
|------------3-------------------3-------------------------------|
|6-----------------------6---------------------------------------|



............................................................

Almost there ...

Sign in to get your own page with links to favourite songs and more. You are just one click away...

Login with Facebook Login with Google