Guitar Tabs Explorer
Marillion bass tabs for Sugar mice

Sugar Mice bass tab


Be the first to rate


Ayreon77Author: Ayreon77

Jamplay guitar lessons

Sugar Mice bass tab by Marillion

`Sugar Mice` is a song off of British neo prog-rockers Marillion??s fourth album, `Clutching at Straws`. `Sugar Mice` was also released as the albums second single.

Bass tabs

Print
  • Tuning: Standard tuning
  • Difficulty: Intermediate
-------------------------------------------------------------------
                     Artist - Marillion
                    ********************
                     Song - Sugar Mice
                    *******************
                Album - Clutching At Straws
               *****************************
                   Tabbed By - Ayreon77
                   **********************
-------------------------------------------------------------------
Tuning = Standard


INTRO
******
G|-----------------|--------------------|
D|-----------s-----|----------s-------5-|
A|----------5\3~~~-|--------2-\3~~~-----|
E|-3~~~~-----------|-3~~~---------------|


----------------------
00:16     H = Harmonic
VERSE 1
********         H   H
G|-------------------5--|-----------------|----------------|-------------|
D|---------------5------|----------s--s---|--------------s-|-------------|
A|----------3~~---------|---------3\5-/-3-|---------3~~-5/-|---------3~~-|
E|-3~~~~----------------|-3~~~~-----------|-3~~~~----------|-3~~~~-------|


----------------------
00:47
CHORUS
*******
G|-11----------11-------|-12---s------|-----------|-------11-12-14----------12-------------|
D|--------12------12-10-|----12\------|--s--------|-12-14--------------12------12-14-----s-|
A|-----12---------------|----------10-|-8\10------|-----------------12-----------------15\-|
E|----------------------|-------------|------8~~~-|----------------------------------------|


----------------------
01:11
BREAK
******
G|---------------------|-------------------|-----------s-------s-|
D|---------s--s------5-|-----------------s-|----------7\------5\-|
A|--------3\5-/-3~~~---|--------2-3~~~--5/-|--------5----3~~~----|
E|-3~~~~---------------|-3~~~~-------------|-3~~~~---------------|

                     s
G|------------------7\-|-------------------|
D|----------------5----|---------5-4-------|
A|--------2-3~~~-------|-------------5-3~~-|
E|-3~~~~---------------|-3~~~--------------|


----------------------
01:49
CHORUS
*******                                          s
G|-------9-12-11---------|-11----------s-------12\-|------------------------------------|
D|-10-12--------------12-|----12-14---8\10--10-----|---------------s----------------s---|
A|-----------------12----|-------------------------|-10~~--10~~--10\12-10---------10\15-|
E|-----------------------|-------------------------|----------------------12-8~~~-------|

                                            s   s
G|----------------------|-12--------12----12\16-\-|
D|----------------------|----12-14-----14---------|
A|------7--------0------|-------------------------|
E|-8-10---10~~-----10~~-|-------------------------|


----------------------
02:13
SOLO
*****
G|------------|---------------|-------------s-|-------------------|
D|------------|---------------|------------5\-|-------------------|
A|------------|-3~~~---3-3--5-|---------------|-3~~~---3-3--------|
E|-3~~~-0-3-3-|------3--------|-3~~~-0-3-3----|------3-----0--1-2-|


G|-----------------|--------------|-----------------s-|-------------s--------|
D|-------------5---|--------------|-------------s--5\-|------------5\7-------|
A|---------------5-|-3~~~---3-3-5-|------------3\7----|-3~~~---3-3-----7-5~~-|
E|-3~~~-0-3-3------|------3-------|-3~~~-0-3-3--------|------3---------------|

02:44
G|----------|---------------|-----------------|--------s--------|---------s---------------|
D|--------s-|-------5-------|-----------------|-------5\7-------|--------7\12-------------|
A|---5-5-7\-|-3~~-5---5-3~~-|-------------2-3-|---3-3-----7-5~~-|---5-5-----------------5-|
E|-5--------|---------------|-3~~~-0-3-3------|-3---------------|-5------------5-5-5--5---|

03:07 - Whammy Solo
G|-----------------|-------|---------------s--------------|-----------------|------------|
D|-----------------|-------|--------------3\5-------------|-----------------|-----5----s-|
A|-------------2-3-|---3-3-|------------------3~~---3-3-5-|-------------2-3-|---3-----5\-|
E|-3~~~-0-3-3------|-3-----|-3~~~-0-3-3-----------3-------|-3~~~-0-3-3------|-3-----3----|

03:30
G|--------------|-------------------|-------------s-|---------------|
D|--------------|-------------------|------------5\-|---------------|
A|------------5-|-3~~~---3-3--------|---------------|-3~~~---33---3-|
E|-3~~~-0-3-3---|------3-----0--1-2-|-3~~~-0-3-3----|------3----3---|


G|----------------|---------------|---------------|------------5------|
D|----------------|-------------s-|---------------|----------5---5--s-|
A|------------0-2-|-3~~~---3-3-5\-|-------------5-|-3-3--3-3-------3\-|
E|-3~~~-0-3-3-----|------3--------|-3~~~-3-3-3----|-------------------|


G|--------------s-|-----------------|----------------|--------------------|
D|-------------5\-|------------s--s-|----------------|--------------------|
A|----------------|-3~~~---3-3-3\5\-|------------2-3-|---3----------------|
E|-3~~~-0-3-3-----|------3----------|-3~~~-0-3-3-----|-3---3-0~~~-1-2-3~~-|

04:17
G|--------------------------------|----14-11-------------------|
D|-9~~-10~~~---s-------------5~~~-|-12-------12-10-------------|
A|-----------10\---s-----s--------|----------------10--------s-|
E|----------------5\8--10\--------|-------------------8~~~-10\-|


----------------------
04:29
VERSE 2
********
G|--------------------|---------s-----------|---------------------------------------|
D|------------------s-|--------4\5-4--------|--s-------9-10~~~----s-------------s---|
A|--------2--3~~---5\-|--------------5-3~~~-|-5\10~~~-----------10\12-10-------5\-3-|
E|-3~~~~--------------|-3~~~----------------|----------------------------3~~~-------|


----------------------
04:59
CHORUS
*******
G|-11~~~~----------11-------------|---s---12---s---------|--------------------|
D|-----------12-------12----10~~~-|-12\14----14\---------|-10-9----------10~~-|
A|--------12-------------12-------|----------------10~~~-|------10------------|
E|--------------------------------|----------------------|---------8~~~-------|

                                            s  s
G|-------9-12-11--------|-11--------12----12\16\-|
D|-10-12-------------12-|----12-10-----14--------|
A|----------------12----|------------------------|
E|----------------------|------------------------|

05:22
G|---------------------------------------------------|
D|---------------------s-----s-------------s-s-------|
A|---------2--3~~~----5\-10--\---2-3---3--3\5\-------|
E|-3~~~~-----------------------------3----------3~~~-|


ENJOY.................

Comment this song and these bass tabs

Do you have corrections, comments on the bass tabs, thoughts about the song or a message to the author? Write them below.