Guitar Tabs Explorer
Marillion guitar tabs for Sugar mice (Ver. 2)

Sugar Mice tab


5 / 5 [1 vote]


Ayreon77Author: Ayreon77

Sugar Mice tab by Marillion (Ver. 2) (Solo)

"Sugar Mice" is a song off of British neo prog-rockers Marillion´s fourth album, "Clucthing at Straws". "Sugar Mice" was also released as the album´s second single.

Guitar tabs

Print
  • Tuning: Standard tuning
  • Difficulty: Intermediate
-------------------------------------------------------------------------
                               Artist - Marillion
                              ********************
                               Song - Sugar Mice
                              *******************
                        Album - Clutching At Straws (1987)
                       ************************************
                              Tabbed By - Ayreon77
                             **********************
-------------------------------------------------------------------------
Tuning = Standard


02:14
e|------------------------------|-------------b-10--b--b---brp---h----------------|
B|------------------------8~~~~~|--s--8-10-8-10----10-10~-10--8-8-10~~~----h----s-|
G|-----------------s--7-9-------|-7\9-----------------------------------7-7-9~~~\-|
D|--------------5-7\9-----------|-------------------------------------------------|
A|-------s--5-7-----------------|-------------------------------------------------|
E|-3~-3-5\7---------------------|-------------------------------------------------|


e|-12--b-12--------p---------|----------------------------------------|
B|----15----15---13-12-13~~~-|----13-12-----13-12-----13-12-----------|
G|---------------------------|-12-------12--------12--------12--------|
D|---------------------------|---------------------------------12/\/\-|
A|---------------------------|----------------------------------------|
E|---------------------------|----------------------------------------|

                                                          h  p
e|---------------------------------------------------14-14-15-14-----------------------------s-|
B|-----------------------------------s---15----15-17-------------15------12~~-12~~--15~~-15~~\-|
G|-------h----12----12-12~~~----12-14\16----16----------------------14~~-----------------------|
D|-12--12-14-----14----12~~~-14-12-------------------------------------------------------------|
A|---------------------------------------------------------------------------------------------|
E|---------------------------------------------------------------------------------------------|

02:43        b r       b r
e|--b-12-14-14--------14-----------p------------|------------------------|
B|-15------------15~~------15~~--13-12-13-13~~~-|-13----15-13-12---------|
G|----------------------------------------------|----12----------12------|
D|----------------------------------------------|-------------------12~~-|
A|----------------------------------------------|------------------------|
E|----------------------------------------------|------------------------|

                                                     b r  b   b                  s
e|------------------------------------------|--b-12-14---14--14---b/\/\/\--b/\/\-\-|
B|----12-------------h----------13-12-13-15-|-15-----------------15-------15-------|
G|-12------h---12--12-14-12~-14-------------|--------------------------------------|
D|-------12-14------------------------------|--------------------------------------|
A|------------------------------------------|--------------------------------------|
E|------------------------------------------|--------------------------------------|
                 Harmonic                             Harmonic
03:07      Dive     *                           Dive     *
e|---3~~~---/\---------3~~--p---p---p--|---3~~~--/\---------3~~-------|
B|---3~~~--/--\--------1~~-1-0-1-0-1-0-|---3~~~-/--\--------1~~--brp--|
G|---0~~~--------------0~~-------------|---0~~~-------------0~~--2--0-|
D|------------------5------------------|-----------------5------------|
A|---------------3~~-------------------|--------------3~~-------------|
E|-3-----------------------------------|-3----------------------------|

          Dive                Whammy
e|---3~~~--/\-------3~--s---15/\/\/\-|---3~~~--/\------3~~------|
B|---3~~~-/--\------1~--\15----------|---3~~~-/--\-----1~~--b---|
G|---0~~~-----------0~---------------|---0~~~----------0~~--2-0-|
D|-----------------------------------|--------------------------|
A|--------------3~~------------------|--------------3~~---------|
E|-3---------------------------------|-3------------------------|

03:37
e|---3~~~------------------------|---3~~~-----3~~-------|
B|---3~~~----brp-----------------|---3~~~-----1~~-b-r---|
G|---0~~~----2--0----------------|---0~~~-----0~~-2---0-|
D|------------------------s----s-|----------------------|
A|----------------3~~--5-5\7-10\-|--------3~~-----------|
E|-3-----------------------------|-3--------------------|


e|---3~~--------------------|----------3------slow-|
B|---3~~--------------------|----------1--------b--|
G|---0~~--------------------|----------0-------2---|
D|-------------------s----s-|----------------------|
A|--------5~~-3~~-5-5\7-10\-|-------------3~~------|
E|-3------------------------|-3~~~-----------------|

fade out.......................
e|-----------------------|---------------------|
B|-----------------------|---------------------|
G|-----------------------|---------------------|
D|----------------s----s-|---------------------|
A|------3~~~---5-5\7-10\-|------3~~~-5-7-10----|
E|-3~~~------------------|-3~~~--------------3-|



ENJOY.............

Other versions of Sugar Mice

- Sugar miceTabs

Comment this song and these guitar tabs

Do you have corrections, comments on the guitar tabs, thoughts about the song or a message to the author? Write them below.