Log in

One click and you are in

Login with Facebook Login with Google

Why sign up and log in

Guitar Tabs Explorer
Marillion tabs for Quartz

Guitar tabs

Quartz - Marillion
Album - Anoraknophobia
Tabbed by Thomas Ward, tomjester@aol.com

@2:42(time)

I'm clockwork and you're quartz...

E(1)=--------------------------|
G(2)=--------------------------|
B(3)=---9-11b12b11--9----------|
D(4)=-9----------------(10*)b9-|*i.e. do 9b10 silently & bend
A(5)=--------------------------|       down to 9.
E(6)=--------------------------|

@4:06

I'm clockwork and you're quartz...

E(1)=--------------------------|
G(2)=--------------------------|
B(3)=---9-11b12b11--9----------|
D(4)=-9----------------(10)b9--|
A(5)=--------------------------|
E(6)=--------------------------|

E(1)=---------------------------------------------------|
G(2)=---------------------------------------------------|
B(3)=---9-11b12b11--9-----------------------------------|
D(4)=-9----------------10-9h10p9h10p9-----------9-------|
A(5)=----------------------------------12-10-12---12-10-|
E(6)=---------------------------------------------------|

E(1)=-----------------------------------------------|
G(2)=---------------------------10h12---------------|
B(3)=-9-11b12b11--9---------9h11-----9h11-----9-9---|
D(4)=----------------10-9h10-------------9h10-----9-|
A(5)=-----------------------------------------------|
E(6)=-----------------------------------------------|

E(1)=-----------------------------|
G(2)=-----------------10bbbbbbb12-|* slow bend
B(3)=-9-11b12b11--9---------------|
D(4)=-----------------------------|
A(5)=-----------------------------|
E(6)=-----------------------------|

@8:22

One of these days, you're just gonna stop!

E(1)=--------------------------|
G(2)=--------------------------|
B(3)=---9-11b12b11--9----------|
D(4)=-9----------------(10)b9--|
A(5)=--------------------------|
E(6)=--------------------------|

E(1)=--------------------------------------------|
G(2)=--------------------------------------------|
B(3)=---9-11b12b11--9----------------------------|
D(4)=-9----------------10-9h10p9h10p9------------|
A(5)=--------------------------------------12-10-|
E(6)=--------------------------------------------|

E(1)=--------------------------|
G(2)=--------------------------|
B(3)=---9-11b12b11--9----------|
D(4)=-9----------------(10)b9--|
A(5)=--------------------------|
E(6)=--------------------------|

E(1)=-----------------------------|
G(2)=-----------------10bbbbbbb12-|* slow bend
B(3)=-9-11b12b11--9---------------|
D(4)=-----------------------------|
A(5)=-----------------------------|
E(6)=-----------------------------|

END!

Almost there ...

Sign in to get your own page with links to favourite songs and more. You are just one click away...

Login with Facebook Login with Google