Log in

One click and you are in

Login with Facebook Login with Google

Why sign up and log in

Guitar Tabs Explorer
Marillion tabs for Lavender

Guitar tabs with lyrics

"Lavender" from the album _The_Thieving_Magpie_
by Marillion

transcribed by Shane P. Faulkner (faulkner@acsu.buffalo.edu)
NOTE: use a capo on the 2nd fret, this is essential

The following two staffs are repeated as the intro.  The chords are "swelled"
in and out with a volume pedal.

"I was walkin' in the park ...... dreamin' ....
----------------------------5--4----------------------5--4-------------------
----------------------------5--5--5-------------------5--5--5----------------
----------------------------------4-------------------------4----------------
-----------------------------------------------------------------------------
-----------------------------------------------------------------------------
-----------------------------------------------------------------------------

sprinklers whisper shimmer in ....
-----------5-------4-----------------------------------5--4--7---------------
-----------5-------5------5----------------------------5--5--5---------------
--------------------------4--------------------------------------------------
-----------------------------------------------------------------------------
-----------------------------------------------------------------------------
-----------------------------------------------------------------------------

Band enters: (no more volume pedal).  The following part is repeated
several times.

--------5--4------------5--4-------------5--4-----------5--4-----------------
--------5--5--5---------5--5--5----------5--5--5--------5--5--5--------------
-----4--------4------2--------4-------2--------4-----2--------4--------------
--2--------------------------------------------------------------------------
------------------5----------------4-----------------------------------------
--------------------------------------------------5--------------------------

Switch to distortion:

--16B(17)R16~---------16B(17)R16~-----------------16B(17)R16~----------------
--------------17------------------17~---17B(19)~---------------17------------
-----------------16~-----------------------------------------------16~-------
-----------------------------------------------------------------------------
-----------------------------------------------------------------------------
-----------------------------------------------------------------------------


--16--16B(17)16--------------------------------------------------------------
----------------17-------------17--19--19B(21)R19_17-------------------------
-------------------16~--16--18------------------------18---------------------
-----------------------------------------------------------------------------
-----------------------------------------------------------------------------
-----------------------------------------------------------------------------

The two staffs above are repeated with little variation.

🏷Legend:
~    normal finger vibrato
/    slide...7/9 means start on the 7th fret and slide to the 9th
_    (underline) hammer-on or pull-off as notated above the tabs
A chord diagramBB    a bend..start on fret to the left of the A chord diagramBB and bend to the note in ()
R    a release
PM   palm mute

Almost there ...

Sign in to get your own page with links to favourite songs and more. You are just one click away...

Login with Facebook Login with Google