Search tabs and chords

Search for song, artist or band

Log in

One click and you are in

Login with Facebook Login with Google

Why sign up and log in

Guitar Tabs Explorer
Marillion bass tabs for Kayleigh

Bass tabs

  • Tuning: Standard tuning
  • Difficulty: Intermediate
-------------------------------------------------------------------
                     Artist - Marillion
                    ********************
                      Song - Kayleigh
                     *****************
               Album - Misplaced Childhood (1983)
              ************************************
                    Tabbed By - Ayreon77
                   **********************
-------------------------------------------------------------------
Tuning = Standard

INTRO
******
G|-------|---------|-------------------|------------------------|
D|-------|---------|-------------------|-----------------55-4---|
A|-2~~~~-|--s------|-------------------|----------------------5-|
E|-------|-2\7~~~~-|-7~~-5~~-2~~-3~~-5-|-7~~-5~~-2-3-3~~--------|

00:18
G|----------------------|------------------------|
D|----------s-----------|------------------------|
A|---------7\-----------|------------------------|
E|-7~~-5~~----2~~-3~~-5-|-7~~-5~~-2-3-3~~--3-3-5-|


-------------------------
00:28
verse 1
********
G|-------------------|------------------------|
D|-------------------|-----------------55-4---|
A|-------------------|----------------------5-|
E|-7~~-5~~-2~~-3~~-5-|-7~~-5~~-2-3-3~~--------|

G|----------------------|----------------------|
D|----------s-----------|----------------------|
A|---------7\-----------|----------------------|
E|-7~~-5~~----2~~-3~~-5-|-7~~-5~~-2-3-3~~-3--5-|

00:46
G|----------------------|------------------------|
D|----------s-----------|-----------------55-4---|
A|---------7\-----------|----------------------5-|
E|-7~~-5~~----2~~-3~~-5-|-7~~-5~~-2-3-3~~--------|


G|----------------------|-----------------|
D|----------s-----------|-----------------|
A|---------7\-----------|-----------------|
E|-7~~-5~~----2~~-3~~-5-|-7~~-5~~-2-3-3~~-|


-------------------------
01:04
CHORUS
*******
G|----------s------------|---------|---------|-----------|
D|---------7\--------s---|---------|---5-4---|-----------|
A|-5~~-5~~----5~~-5~~\---|-3-2-----|-5-----5-|-5---------|
E|---------------------5-|-----5-3-|---------|---2-3-5~~-|


G|-----------------------|---------|---------|----------------|
D|---------7---------s---|---------|---5-4---|----------------|
A|-5~~-5~~----5~~-5~~\---|-3-2-----|-5-----5-|-5--------------|
E|----------5----------5-|-----5-3-|---------|---2--3--4--5~~-|

01:22             s
G|---------------7\--------------|---------|-------|--s--7------|
D|----------s--7-------------7---|---------|-5-4---|-7\9---9-7--|
A|-5~~-5~~-7\9-------5~~-5~~-----|-3-2-----|-----5-|------------|
E|-----------------------------5-|-----5-3-|-------|------------|

01:31
G|---------------7~~--12-11--------|---------|------------|
D|----------s--7------------12---s-|---------|---5-4------|
A|-5~~-5~~-7\9-----------------12\-|-3-2-----|-5-----5~~~-|
E|---------------------------------|-----5-4-|------------|


-------------------------
01:40
SOLO
*****
G|---------------------|------------------s--------|
D|----------s----------|-----------------5\7-5-----|
A|---------7\----------|-----------------------7-5-|
E|-7~~-5~~----2~~--5~~-|-7~~-5~~-2~~-3~~-----------|

01:53
G|----------------------|--------------------|-----------|
D|----------s-----------|----------s---------|---5-4-----|
A|---------7\-----------|---------7\---------|-5-----5-4-|
E|-7~~-5~~----2~~-3~~-5-|-7~~-5~~----2~~-3~~-|-----------|

01:58
G|----------------------------|----------------------------|
D|------------7~~-------------|----------------------------|
A|----------7-----------------|---------7------------------|
E|-7~~-5~~--------2~~-3~~-3-5-|-7~~-5~~----5-2~~-3~~-3-3-5-|

02:07
G|---------------------------|-----------------------|-------|
D|----------s----------------|------------s----------|-5-4---|
A|---------7\----------------|-----------9\----------|-----5-|
E|-7~~-5~~-----2~~-3~~-3-3-5-|-7~~-5~~-9-----2~~-3~~-|-------|

02:16
G|-------------s----------------|------------s----------------|
D|------------7\--4-------------|-----------7\--4---------5-4-|
A|----------7-------5-----------|---------7-------5-----------|
E|-7~~-5~~------------2-3~~-3-5-|-7~~-5~~-----------2-3~~-----|

02:25
G|--------------|--------------|-----------|------------|
D|--------------|--------------|-----------|------------|
A|-5~~-5~~------|-5~~-5~~------|-3-2-------|-----5~~~~~-|
E|----------5~~-|----------5~~-|-----5-3~~-|-3-2--------|


-------------------------
02:33
VERSE 2
********                Vocals
G|--------s--6---------|---------------------|-----------------|---------|
D|-------4\6---6-------|---------------------|-----------------|-7-7-6---|
A|-4~~~-----------4~~~-|---------------------|-----------------|-------7-|
E|---------------------|-4-9~~-7~~-4~~-5~~-7-|-9~~-7~~-4-5-5~~-|---------|


G|---------------------|---------------------|
D|---------------------|---------------------|
A|---------------------|---------------------|
E|-4-9~~-7~~-4~~-5~~-7-|-9~~-7~~-4-5-5~~-5-7-|

03:01
G|------------------------|----------------------|---------|
D|----------s-------------|---------fast---------|-7-7-6---|
A|---------9\---------7---|---------99-s---------|-------7-|
E|-9~~-7~~----4~~-5~~---7-|-9~~-7~~---7\-4-5-5~~-|---------|

03:10
G|----------------------|--------------------|
D|----------s-----------|------------------s-|
A|---------9\-----------|-----------------9\-|
E|-9~~-7~~----4~~-5~~-7-|-9~~-7~~-4-5-5~~----|


-------------------------
03:19
CHORUS
*******
G|--------------|-------------|---------|-----------|-----------|
D|--------------|-------------|---------|---5-4-----|---4-5-6-7-|
A|-5~~-5~~------|-5~~-5~~-----|-3-2-----|-5-----5~~-|-5---------|
E|----------5~~-|---------5~~-|-----5-3-|-----------|-----------|


G|-------------|-------------|---------|----------|-----------|
D|---------7---|-------------|---------|----------|-----------|
A|-5~~-5~~-----|-5~~-5~~-----|-3-2-----|------5~~-|-----------|
E|-----------5-|---------5~~-|-----5-3-|-3-2------|-0-2-3-4-5-|

03:36
G|-------------|-------------|---------|--------------------|
D|-------------|-------------|---------|---5-4--------------|
A|-5~~-5~~-----|-5~~-5~~-----|-3-2-----|-5-----5------------|
E|---------5~~-|---------5~~-|-----5-3-|---------2--3--4--5-|


G|-----------------12-11-----------|---------|------------|
D|----------s---12-------12---s----|---------|---5-4------|
A|-5~~-5~~-7\12-------------12\--5-|-3-2-----|-5-----5~~~-|
E|---------------------------------|-----5-3-|------------|


This part might be the start of Lavender
G|--s--------s---17-|-------------17-|
D|-7\12~~~-14\15----|-12~~~-14-15----|
A|------------------|----------------|
E|------------------|----------------|



ENJOY.............

Kayleigh bass tab

Marillion bass tabs for Kayleigh From their Misplaced Childhood (1983) Album.

Almost there ...

Sign in to get your own page with links to favourite songs and more. You are just one click away...

Login with Facebook Login with Google