Search tabs and chords

Search for song, artist or band

Log in

One click and you are in

Login with Facebook Login with Google

Why sign up and log in

Guitar Tabs Explorer
Marillion guitar tabs for Kayleigh (Ver. 2)

Guitar tabs

  • Tuning: Standard tuning
  • Difficulty: Intermediate
-------------------------------------------------------------------------
                               Artist - Marillion
                              ********************
                                Song - Kayleigh
                               *****************
                       Album - Misplaced Childhood (1985)
                      ************************************
                             Tabbed By - Ayreon77
                            **********************
-------------------------------------------------------------------------
Tuning = Standard
01:40
SOLO
*****                                                        Whammy
  Rake                                Rake                    Dive
e|-------------------------------5~~-|-----------------------------------|
B|---2-3---2~~-3---2~~-3---2~~-3-----|---2-3---2~~-3---2~~-5---/\--------|
G|--2----4-------4-------4-----------|--2----4-------4-------2/--\/\/\/\-|
D|-2---------------------------------|-2---------------------------------|
A|-----------------------------------|-----------------------------------|
E|-----------------------------------|-----------------------------------|

  Rake                                                                           b~~
e|--------------------------------------------17~~-|----------------------b-14-17-|
B|-----14-15----14~~-15----14~~-15----14~~-15------|-14-15----14~~-15-17-17-------|
G|---14------16---------16---------16--------------|-------16---------------------|
D|-14----------------------------------------------|------------------------------|
A|-------------------------------------------------|------------------------------|
E|-------------------------------------------------|------------------------------|
                                                       slow
01:58                                                    b  br
e|-----b-------------------------h--------|-----------7-10--9------b----p----|
B|-17-17-17~~-14~~-------------14-15------|---------b----------10-10--10-7---|
G|-----------------14~~-----14-------16~~-|--s--7-9-9----------------------9-|
D|-----------------------16---------------|-7\9------------------------------|
A|----------------------------------------|----------------------------------|
E|----------------------------------------|----------------------------------|

                          p                b   rbp
e|-------s---10-|-12-10-12-10-12-12-10-12-12--12--10-------|
B|-b-7-10\12----|------------------------------------12-12-|
G|-9------------|------------------------------------------|
D|--------------|------------------------------------------|
A|--------------|------------------------------------------|
E|--------------|------------------------------------------|

02:11  h  p
e|-10-9-10-9----9--------------------------|
B|-----------12---10----------10-rbp-------|
G|-------------------11-9-7-9----9--7------|
D|------------------------------------9~~~-|
A|-----------------------------------------|
E|-----------------------------------------|

02:16
e|-9~~~-----------------|-9~~~---------------------|
B|------10~~~-7~~~------|------10~~~-7~~~~~~~~~~~~-|
G|-----------------7~~~-|--------------------------|
D|----------------------|--------------------------|
A|----------------------|--------------------------|
E|----------------------|--------------------------|

02:24
e|-10~~-9~~----|-----------|--------------------------|
B|----------10-|-8~~-7~~---|--------------------------|
G|-------------|---------7-|-5~~-4~~-----4--s---------|
D|-------------|-----------|---------5-----5\7~~~~~~~-|
A|-------------|-----------|-----------7--------------|
E|-------------|-----------|--------------------------|



ENJOY.............

Kayleigh tab

Marillion guitar tabs for Kayleigh (Ver. 2) From their album Misplaced Childhood (1985).

Other versions of Kayleigh

KayleighChords
Kayleigh (Ver. 2)Chords
KayleighTabs

Almost there ...

Sign in to get your own page with links to favourite songs and more. You are just one click away...

Login with Facebook Login with Google