Search tabs and chords

Search for song, artist or band

Log in

One click and you are in

Login with Facebook Login with Google

Why sign up and log in

Guitar Tabs Explorer
Marillion guitar tabs for Incubus (Ver. 2)

Guitar tabs

  • Tuning: Standard tuning
  • Difficulty: Intermediate
-------------------------------------------------------------------------
                               Artist - Marillion
                              ********************
                                  Song - Incubus
                                 ****************
                                 Album - Fugazi
                                ****************
                              Tabbed By - Ayreon77
                             **********************
-------------------------------------------------------------------------
Tuning = Standard                    SOLO
                                    ******

05:24
e|-slow------------|-----------|-----------|-------slow---|
B|--b--------------|-----------|-----------|--------b-~~~-|
G|-4----4-2-1------|------h----|---1-2-1~~-|-1-2-4-4------|
D|-------------2~~-|---2-2-4~~-|-4---------|--------------|
A|-----------------|-4---------|-----------|--------------|
E|-----------------|-----------|-----------|--------------|

        b  r
e|-2-4-4-------------s----------h-----|
B|-----------2~~--5-5\7~~--7-9-9-10-9-|
G|------------------------------------|
D|------------------------------------|
A|------------------------------------|
E|------------------------------------|

05:41      s            p     s                         br
e|------7-7\9--9-9-9-9-9-7-9-9\12-12~~--12-12~~-|-9-12-12-----br------9--br--p--|
B|-9-10-----------------------------------------|---------10-12-----b---12-10-9-|
G|----------------------------------------------|---------------11-11-----------|
D|----------------------------------------------|-------------------------------|
A|----------------------------------------------|-------------------------------|
E|----------------------------------------------|-------------------------------|

05:51                                                          b r
e|---p------|-------h-------b----|---------s------------12-14-14---12-12~~-|
B|-10-9-----|----9-9-10-9--12-12-|-10-12-12\14-14-14-14--------------------|
G|------9-9-|--------------------|-----------------------------------------|
D|----------|-11-----------------|-----------------------------------------|
A|----------|--------------------|-----------------------------------------|
E|----------|--------------------|-----------------------------------------|

06:00
e|----------|----------------|----------------|----------------|----------------|----------------|----------------|---------|
B|---p------|------h--p------|----------------|----------------|----------------|----------------|----------------|---------|
G|-14-13----|-14-13-14-13----|-14-13-14-13----|-14-13-14-13----|-14-13-14-13----|-14-13-14-13----|-14-13-14-13----|-13-14~~-|
D|-------14-|-------------14-|-------------14-|-------------14-|-------------14-|-------------14-|-------------14-|---------|
A|----------|----------------|----------------|----------------|----------------|----------------|----------------|---------|
E|----------|----------------|----------------|----------------|----------------|----------------|----------------|---------|

e|--------------------------------14-12----------------------|
B|--------------------12-15-14-12-------15-14-12-------------|
G|-11-13-14--11-13-14----------------------------14-13-13~~~-|
D|-----------------------------------------------------------|
A|-----------------------------------------------------------|
E|-----------------------------------------------------------|

06:09
    b r                  b    brp    b   rb
e|-16----------16-17-19-19-|-19--17-19--19---17-16-------|
B|------17--19-------------|-----------------------17-17-|
G|-------------------------|-----------------------------|
D|-------------------------|-----------------------------|
A|-------------------------|-----------------------------|
E|-------------------------|-----------------------------|

06:17
e|----------------------------|----------------------------|------------------------------------------|
B|-19-19-19-19-19-19-17-------|----------------------------|---------------------------------------17-|
G|----------------------18-16-|-18-18-18-18-18-18-16-------|----------------------16-18-18--16-18-----|
D|----------------------------|----------------------18-16-|-19-19-19-19-19-19-19---------------------|
A|----------------------------|----------------------------|------------------------------------------|
E|----------------------------|----------------------------|------------------------------------------|


e|----------------------------|----------------------------|-----------------------------------------------|
B|-19-19-19-19-19-19-17-------|----------------------------|---------------------------------------17-19~~-|
G|----------------------18-16-|-18-18-18-18-18-18-16-------|----------------------16-18-18--16-18----------|
D|----------------------------|----------------------18-16-|-19-19-19-19-19-19-19--------------------------|
A|----------------------------|----------------------------|-----------------------------------------------|
E|----------------------------|----------------------------|-----------------------------------------------|



ENJOY.............

Incubus tab

Marillion guitar tabs for Incubus (Ver. 2) "Incubus" is one of the most famous songs from neo-progrockers Marillion´s second album, "Fugazi". "Incubus" and the album was released in 1984. "Incubus" is written by Fish, Mark Kelly, Steve Rothery and Pete Trewavas.

Other versions of Incubus

IncubusTabs

Almost there ...

Sign in to get your own page with links to favourite songs and more. You are just one click away...

Login with Facebook Login with Google