Log in

One click and you are in

Login with Facebook Login with Google

Why sign up and log in

Guitar Tabs Explorer
Marillion tabs for Hollow man

Guitar tabs

Hollow Man - Marillion
Album - Brave
Tabbed by Thomas Ward, tomjester@aol.com
Tabbed from a live recording (Live in Paris - Made Again Disc 2)

fragile vandalised...

e-------------------------|----------------------------------|
B-------------------------|-------15-------------------------|
G-----12-14-14\16---19-14-|----12----14----12-14-12-14b16b14-|
D--14---------------------|-14----------14-------------------|
A-------------------------|----------------------------------|
E-------------------------|----------------------------------|

watch this cold world........endless hollow men
e-------------------------|----------------------------------|
B-------------------------|----------------------------------|
G---------- --------------|----------------------------------|
D-------------------------|--12-14---------------12-14----12-|
A-------------------------|----------------------------14----|
E-------------------------|----------------------------------|

come & meet our friends
e-------------------------|----------------------------------|
B-------------------------|-15-15-15-15-15-15-15-------------|
G-------------------------|----------------------------------|
D-------------------------|----------------------------------|
A-------------------------|----------------------------------|
E-------------------------|----------------------------------|

stand us...silly clothes
e-------------------------|----------------|
B-------------------------|----------------|
G-------------------------|----12-14-14/16-|
D-------------------------|--14------------|
A-------------------------|----------------|
E-------------------------|----------------|

put our batteries in
e-------------------------|-15-14-12-------------------------|
B-------------------------|----------15-15b17----------------|
G-------------------------|----------------------------------|
D-------------------------|----------------------------------|
A-------------------------|----------------------------------|
E-------------------------|----------------------------------|

... like fairground ducks...watch us grin &.......
e-------------------------|------------------------------------|
B----15---12--------------|----------12\14----15\16-----16\17--|
G---------------------12--|------------------------------------|
D-------------------------|------------------------------------|
A-------------------------|------------------------------------|
E-------------------------|------------------------------------|

see ..      behind our eyes ...        win................skin
e-------------------------|-----------------------------------|
B------------19-----------|---------------17-16-14-12-11-9-7--|
G-------------------------|-----------------------------------|
D-------------------------|-----------------------------------|
A-------------------------|-----------------------------------|
E-------------------------|-----------------------------------|



the ... lonely...........     sniff the air for something...
e----------------------------|-----------------------------------|
B----------15------20-19-15--|-----------------------------------|
G----------------------------|----------------------12*sustain*--|
D----------------------------|-----------------------------------|
A----------------------------|-----------------------------------|
E----------------------------|-----------------------------------|

we're tin hard...shaken ->
e----------------------------|-----------------------------------|
B----------------------------|-----------------------------------|
G----------------------------|----14b16--------------------------|
D----------------------------|-----------------------------------|
A----------------------------|-----------------------------------|
E----------------------------|-----------------------------------|

Almost there ...

Sign in to get your own page with links to favourite songs and more. You are just one click away...

Login with Facebook Login with Google