Log in

One click and you are in

Login with Facebook Login with Google

Why sign up and log in

Guitar Tabs Explorer
Marillion tabs for He knows you know

Guitar tabs with lyrics

MARILLION

Album: Script For A chord diagramA augmentedA Jester's Tear
Music: Fish, Rothery, Kelly, Trewavas, Pointer
Key: A chord diagramC majorC (A chord diagramA minorAm)
Time: 4/4
Tempo: 138


Rythm notations:
Notes:
1 |  =  2 |  =  4 |  =  4 | |  =  8 |
  *       +       |       |_|       |/

Rests:
1 \  =  1 |
  (       |

Tie:  __
     /  \
    10  (10)  or  10  (10)
    |    |        |\__/|
    |    |        |    |


Other notations:
One Step Bend:
     full       full--|
     /          /
    10     or  10  (10)
    |          |\__/|
    |          |    |

One Step Bend & Release:
     full
     /  \
    10  (10)
    |    |
    |    |

Pull Off:
      P
     / \
    12 10
    |  |
    |  |

Structure:
Rhy. Fig. 1 (6 times) + Rhy. Fig. 2 (4 times)
+ Rhy. Fig. 2 (first 6 bars) + Rhy. Fill 1
+ 18 bars of silence (keyboard interlude)
+ Rhy. Fig. 3 (2 times) + Solo (2 times)
+ Rhy. Fig. 2 (5 times) + Rhy. Fig. 3 (3 times)
+ Rhy. Fill 2


Rhy. Fig. 1: (clean sound w/ delay)

 |-----------------|------------------|
T|-----------------|------------------|
A chord diagramA augmentedA|-----5-----4-----|-5-----7-----9----|
A chord diagramBB|-----|-7---|-5---|-|-7---|-9---|-10-|
 |-0---|-|-0-|-|-0-|-|-|-0-|-|-0-|-|--|
 |-|---|-|-|-|-|-|-|-|-|-|-|-|-|-|-|--|
   |   |_| |_| |_|   |_| |_| |_| |_|


 |--------------------|-----------------|
T|--------------------|-----------------|
A chord diagramA augmentedA|-----10------9------|-7-----5-----4---|
A chord diagramBB|-----|--12---|-10---|-|-9---|-7---|-5-|
 |-0---|--|--0-|-|--0-|-|-|-0-|-|-0-|-|-|
 |-|---|--|--|-|-|--|-|-|-|-|-|-|-|-|-|-|
   |   |__|  |_| |__|   |_| |_| |_| |_|


Rhy. Fig. 2: (clean sound w/ delay)

 |-----------------|-----------------|
T|-----------------|-----------------|
A chord diagramA augmentedA|-----5-----4-----|-5-----7---------|
A chord diagramBB|-----|-7---|-5---|-|-7---|---9-----|
 |-0---|-|-0-|-|-0-|-|-|-0-|---|-0---|
 |-|---|-|-|-|-|-|-|-|-|-|-|---|-|---|
   |   |_| |_| |_|   |_| |/|   |/|


 |-----------------|------------------|
T|-----------------|------------------|
A chord diagramA augmentedA|-----5-----4-----|-5-----9----------|
A chord diagramBB|-----|-7---|-5---|-|-7---|---10-----|
 |-0---|-|-0-|-|-0-|-|-|-0-|---|--0---|
 |-|---|-|-|-|-|-|-|-|-|-|-|---|--|---|
   |   |_| |_| |_|   |_| |/|   |/ |


 |-----------------|-------------------|
T|-----------------|-------------------|
A chord diagramA augmentedA|-----5-----4-----|-5-----12----------|
A chord diagramBB|-----|-7---|-5---|-|-7---|----10-----|
 |-0---|-|-0-|-|-0-|-|-|-0-|----|--0---|
 |-|---|-|-|-|-|-|-|-|-|-|-|----|--|---|
   |   |_| |_| |_|   |_| |/|    |/ |

 |-----------------|-5-----5-----5---|
T|-----------------|-|-5---|-5---|-5-|
A chord diagramA augmentedA|-----5-----4-----|-|-|-5-|-|-5-|-|-|
A chord diagramBB|-----|-7---|-5---|-|-|-|-|-|-|-|-|-|
 |-0---|-|-0-|-|-0-|-|-|-|-|-|-|-|-|-|
 |-|---|-|-|-|-|-|-|-|-|-|-|-|-|-|-|-|
   |   |_| |_| |_|   |_| |_| |_| |_|


Rhy. Fill 1: (clean sound w/ delay)

 |-----------------|-----------------|
T|-----------------|-----------------|
A chord diagramA augmentedA|-----5-----4-----|-5---\---\---\---|
A chord diagramBB|-----|-7---|-5---|-|---(---(---(---|
 |-0---|-|-0-|-|-0-|-|---------------|
 |-|---|-|-|-|-|-|-|-|---------------|
   |   |_| |_| |_|   |


Rhy. Fig. 3: (light distorsion)
                        ___
                       /   \
 |-8----8----8--8--8--8--|-(8-)-8----8----8--8----|
T|-10---10---10-10-10-10-|-(10)-10---10---10-10---|
A chord diagramA augmentedA|-9----9----9--9--9--9--|-(9-)-9----9----9--9----|
A chord diagramBB|-|----|----|--|--|--|--|--|---|----|----|--|----|
 |-|----|----|--|--|--|--|--|---|----|----|--|----|
 |-|----|----|--|--|--|--|--|---|----|----|--|----|
   |    |    |__|  |__|     |/  |    |    |/ |
                   __
                  /  \
 |-7---7---7-7-7-7-|-(7)-7---7---7-7---|
T|-8---8---8-8-8-8-|-(8)-8---8---8-8---|
A chord diagramA augmentedA|-7---7---7-7-7-7-|-(7)-7---7---7-7---|
A chord diagramBB|-|---|---|-|-|-|-|--|--|---|---|-|---|
 |-|---|---|-|-|-|-|--|--|---|---|-|---|
 |-|---|---|-|-|-|-|--|--|---|---|-|---|
   |   |   |_| |_| |  |/ |   |   |/|
                        ___
                       /   \
 |-10---10---10-10-10-10-|-(10)-10---10---10-10---|
T|-10---10---10-10-10-10-|-(10)-10---10---10-10---|
A chord diagramA augmentedA|-11---11---11-11-11-11-|-(11)-11---11---11-11---|
A chord diagramBB|-|----|----|--|--|--|--|--|---|----|----|--|----|
 |-|----|----|--|--|--|--|--|---|----|----|--|----|
 |-|----|----|--|--|--|--|--|---|----|----|--|----|
   |    |    |__|  |__|     |/  |    |    |/ |
                        ___
                       /   \
 |-12---12---12-12-12-12-|-(12)-12---12---12-12---|
T|-12---12---12-12-12-12-|-(12)-12---12---12-12---|
A chord diagramA augmentedA|-12---12---12-12-12-12-|-(12)-12---12---12-12---|
A chord diagramBB|-|----|----|--|--|--|--|--|---|----|----|--|----|
 |-|----|----|--|--|--|--|--|---|----|----|--|----|
 |-|----|----|--|--|--|--|--|---|----|----|--|----|
   |    |    |__|  |__|     |/  |    |    |/ |


Solo: (Rothery's special lead sound...)

    full     full  P    full---|
 |--/--------/-\--/-\---/-|--------------------|
T|-15-------15-(15)-13-15-|-(15)---------------|
A chord diagramA augmentedA|-|--------|---|---|--|\_|_/|-----------------|
A chord diagramBB|-|--------|---|---|--|--|--|-----------------|
 |-|--------|---|---|--|--|--|-----------------|
 |-|--------|---|---|--|--|--|-----------------|
   +        |___|   |__|     *

                      ___
 |-------------------/-|-\------------------|
T|-15-------15---13-12-|-(12)---------------|
A chord diagramA augmentedA|-|--------|----|--|--|--|-----------------|
A chord diagramBB|-|--------|----|--|--|--|-----------------|
 |-|--------|----|--|--|--|-----------------|
 |-|--------|----|--|--|--|-----------------|
   +        |    |__|     *


 |--------------------_|_-------------------|
T|-------------------/-|-\------------------|
A chord diagramA augmentedA|-14-------14---12-14-|-(14)---------------|
A chord diagramBB|-|--------|----|--|--|--|-----------------|
 |-|--------|----|--|--|--|-----------------|
 |-|--------|----|--|--|--|-----------------|
   +        |    |__|     *

                     full---|
 |-------------------/-|--------------------|
T|-20-------20---17-20-|-(20)---------------|
A chord diagramA augmentedA|-|--------|----|--|\_|_/|-----------------|
A chord diagramBB|-|--------|----|--|--|--|-----------------|
 |-|--------|----|--|--|--|-----------------|
 |-|--------|----|--|--|--|-----------------|
   +        |    |__|     *


Rhy. Fill. 2: (clean sound w/ delay)

 |-8----------------|
T|-10---------------|
A chord diagramA augmentedA|-9----\---\---\---|
A chord diagramBB|-|----(---(---(---|
 |-|----------------|
 |-|----------------|
   |


Guitar Transcription: Olivier Grisvard - March 1994.

Other versions of He Knows You Know

He knows you knowChords

Almost there ...

Sign in to get your own page with links to favourite songs and more. You are just one click away...

Login with Facebook Login with Google