Guitar Tabs Explorer
Marillion guitar tabs for Chelsea monday

Chelsea Monday tab


5 / 5 [1 vote]


Ayreon77Author: Ayreon77

Chelsea Monday tab by Marillion

"Chelsea Monday" is a track from side 2 of British neo-progrock band Marillion??s debut studio album "Script For A Jester??s Tear". The album was released in 1983.

Guitar tabs

Print
  • Tuning: Standard tuning
  • Difficulty: Intermediate
-------------------------------------------------------------------------
                               Artist - Marillion
                              ********************
                             Song - Chelsea Monday
                            ***********************
                        Album - Script For A chord diagramAA Jesters Tear
                       ***********************************
                              Tabbed By - Ayreon77
                             **********************
-------------------------------------------------------------------------
Tuning = Standard


00:37
SLIDE
******         s                                 s
e|-13~~~~~~~-13\12~~~~~~~~~~~----s------------22-\-19~~~~~~~~-|
B|-----------------------------13\15~~~~~~~-------------------|
G|------------------------------------------------------------|
D|------------------------------------------------------------|
A|------------------------------------------------------------|
E|------------------------------------------------------------|

00:50                    s                  s  s   vol
e|---s---------s--s----22\----10~~~~~~~~~-12\13\12-10~~~~~~~~~~~~~~~-|
B|-13\11~~~~--8\20\--------------------------------------------------|
G|-------------------------------------------------------------------|
D|-------------------------------------------------------------------|
A|-------------------------------------------------------------------|
E|-------------------------------------------------------------------|
                                        slow
     s            01:32                   s
e|-18\17~~~~~~~~-|---s--s---vol---------10\17~~~~~~-|
B|---------------|-10\11\10-8~~~~~~~~~--------------|
G|---------------|----------------------------------|
D|---------------|----------------------------------|
A|---------------|----------------------------------|
E|---------------|----------------------------------|

01:50           s                             s
e|-13~~~~~~~~-13\12~~~~~~~~~~~---s----------17\10~~~~~~~~~~~---s--------------|
B|-----------------------------13\15~~~~~~~------------------13\11~~~~~~~~~~~-|
G|----------------------------------------------------------------------------|
D|----------------------------------------------------------------------------|
A|----------------------------------------------------------------------------|
E|----------------------------------------------------------------------------|


-----------------------------------
02:09
SOLO 1
*******
    b        br     b
e|-17~~~~~~-17-14--17~~~~~~~-|--b-----rbp---|-brp----|-brp----|-brp----|-brp----|-b---------|
B|---------------------------|-15~~~-15--12-|-15--12-|-15--12-|-15--12-|-15--12-|-15~~~~~~~-|
G|---------------------------|--------------|--------|--------|--------|--------|-----------|
D|---------------------------|--------------|--------|--------|--------|--------|-----------|
A|---------------------------|--------------|--------|--------|--------|--------|-----------|
E|---------------------------|--------------|--------|--------|--------|--------|-----------|

                  b rp      b r                             h  p  s     h
e|------------12-14---12-|-14-----------------|-19~~~~~~~-17-19-17\15-15-17~~~~-|
B|-12--b-----------------|------13~~~~~~~~~~~-|---------------------------------|
G|----14~~~~~------------|--------------------|---------------------------------|
D|-----------------------|--------------------|---------------------------------|
A|-----------------------|--------------------|---------------------------------|
E|-----------------------|--------------------|---------------------------------|
                                                          right  Tap
     h  p  s                                               thumb  Harmonics
e|-15-17-15\14--------------------------------|------slow--------------|
B|-------------15---s--s----------------------|--------b---TH----------|
G|----------------14\12\11------s----------s--|--------2---14----------|
D|-------------------------12-12\14~~~~~~~-\--|----------------2~~~~~~-|
A|--------------------------------------------|------------------------|
E|--------------------------------------------|-0~~~~~-----------------|


e|-----------------------s------s------s------s----------|
B|------8-7----------s--8\10--10\12--12\15--15\17-17~~~~-|
G|-9~~~-----7-------7\9----------------------------------|
D|------------9-7-9--------------------------------------|
A|-------------------------------------------------------|
E|-------------------------------------------------------|


e|--b------rb--------|----------------------------|--------12--------12-----------------------------------------|
B|-15~~~~-15---------|--------b-15--b-15--b-------|--b---------b---------brp------------b-----------------------|
G|-----------12~~~~~-|----12-14----14----14~~~~~~-|-14~~~~~---14~~~~----14--12---------11~~~~-9~~~~~~~~-9-9~~~~-|
D|-------------------|-14-------------------------|----------------------------14~~~~~~-------------------------|
A|-------------------|----------------------------|-------------------------------------------------------------|
E|-------------------|----------------------------|-------------------------------------------------------------|

03:13
e|-------------------------|-------------------------|-----------|
B|-12-13----12-------------|-12-13----12-------------|-12~~~~~~~-|
G|-------14----12-14-11-12-|-------14----12-14-11-12-|-----------|
D|-------------------------|-------------------------|-----------|
A|-------------------------|-------------------------|-----------|
E|-------------------------|-------------------------|-----------|

                  br                      b        rbp
e|---------14-15-17-15-14--------|-14-15-15~~~~~~-15--14-------------|
B|-17~~~~~----------------17~~~~-|----------------------15-17~~~~~~--|
G|-------------------------------|-----------------------------------|
D|-------------------------------|-----------------------------------|
A|-------------------------------|-----------------------------------|
E|-------------------------------|-----------------------------------|
 |                                                                   |
 |GUITAR 2                                                           |
e|-------------------------------|-----------------------------------|
B|----------------br-------------|--------b--------rbp---------------|
G|---------11-12-14-12-11--------|-11-12-12~~~~~~-12--11-------------|
D|-14~~~~~----------------14~~~~-|-----------------------12-14~~~~~~-|
A|-------------------------------|-----------------------------------|
E|-------------------------------|-----------------------------------|


                  br                      b        rbp
e|---------14-15-17-15-14--------|-14-15-15~~~~~~-15--14-------------|
B|-17~~~~~----------------17~~~~-|----------------------15-17~~~~~~--|
G|-------------------------------|-----------------------------------|
D|-------------------------------|-----------------------------------|
A|-------------------------------|-----------------------------------|
E|-------------------------------|-----------------------------------|
 |                                                                   |
 |GUITAR 2                                                           |
e|-------------------------------|-----------------------------------|
B|----------------br-------------|--------b--------rbp---------------|
G|---------11-12-14-12-11--------|-11-12-12~~~~~~-12--11-------------|
D|-14~~~~~----------------14~~~~-|-----------------------12-14~~~~~~-|
A|-------------------------------|-----------------------------------|
E|-------------------------------|-----------------------------------|


--------------------------------
03:38
CLEAN PICKING
**************
e|------------------------7-----7---|------------------|
B|-7------8-----------------8-----8-|-7-----8----------|
G|---9------9----7-9----------9-----|---8-----7----7-9-|
D|-----9------9------9--------------|-----9-----9------|
A|---------------------7------------|------------------|
E|----------------------------------|------------------|X2



e|---1-----0-----|---1-----0-----|---1-----0-----|------------------|
B|-----3-----3---|-----3-----3---|-----3-----3---|---3--------3---3-|
G|-------2-----2-|-------0-----0-|-------0-----0-|-----0------------|
D|-0-------------|---------------|---------------|-------0----------|
A|---------------|-3-------------|-1-------------|------------------|
E|---------------|---------------|---------------|-3--------1---0---|


--------------------------------
04:32
SOLO 2 - Vol Pedal
*******
e|------------------------------------b-r-----|----------------------------------------|
B|--------------------------------br-10-~~~~~-|--------------------------------br------|
G|-------------------------9~~~~-11-----------|-------------------------9~~~~-11-------|
D|-5~~~~~-4~~~~~~-----------------------------|-5~~~~~-4~~~~~~-------------------10~~~-|
A|----------------5~~~~~~---------------------|----------------5~~~~~~-----------------|
E|--------------------------------------------|----------------------------------------|X3


--------------------------------
05:15
SOLO 3
*******
e|---------------------s---------------------br---------------------|--------------b-r--b-r-|
B|-7~~~~~~-5-7~~~~~~~-7\-14~~~~~~-12-14~~~~-14-12~~~~~----12~~~~~~~-|-15~~~~~~-15-15---15---|
G|-----------------------------------------------------14-----------|-----------------------|
D|------------------------------------------------------------------|-----------------------|
A|------------------------------------------------------------------|-----------------------|
E|------------------------------------------------------------------|-----------------------|

               Trill..................                                                        b  b  b  b   r
e|------------h--p-h--p-h--p-h--p-h--p-s----------------brbr----------------------|----15~~~-15-15-15-15-----|
B|-----------7-10-7-10-7-10-7-10-7-10-7\-14~~~~~~~-12-14-----12~~~~~----12~~~~~~~-|-12-----------------------|
G|-11~~~~~-9---------------------------------------------------------14-----------|--------------------------|
D|--------------------------------------------------------------------------------|--------------------------|
A|--------------------------------------------------------------------------------|--------------------------|
E|--------------------------------------------------------------------------------|--------------------------|

           br             br
e|-14~~~~-16-12-14~~~~-|-16-12-------------------brp-------------------|-----------12------------------|
B|---------------------|-------14~~~~~-12-14~~~-12--10-12~~~-10-12~~~~-|-12-15~~~~----15~~~~~-15-14~~~-|
G|---------------------|-----------------------------------------------|-------------------------------|
D|---------------------|-----------------------------------------------|-------------------------------|
A|---------------------|-----------------------------------------------|-------------------------------|
E|---------------------|-----------------------------------------------|-------------------------------|

05:58                                                                        does not do it
    b r                                                                     in song, but sounds good.
e|-16--14-12--------------------------------|----------------------s---------h-p-h-p-h-p-h--|
B|-----------15-14-12-----------------------|-----------10-12~~~-12\--3~~~~~0-3-0-3-0-3-0-3-|
G|--------------------14-13-----------13~~~-|-13-11~~~--------------------------------------|
D|---------------------------14-11-14-------|-----------------------------------------------|
A|------------------------------------------|-----------------------------------------------|
E|------------------------------------------|-----------------------------------------------|

06:12
e|------------------12~~~~~~-11-----------|-------------------|-12~~~~~-10-12~~~~~~-|
B|-7~~~~-5-7~~~~~~~-------------12~~~~~~~-|-15~~~~-13-15~~~~~-|---------------------|
G|----------------------------------------|-------------------|---------------------|
D|----------------------------------------|-------------------|---------------------|
A|----------------------------------------|-------------------|---------------------|
E|----------------------------------------|-------------------|---------------------|
 |                                                                                  |
 |Guitar 2                                                                          |
e|----------------------------------------|-------------------|---------------------|
B|----------------------------------------|-------------------|---------------------|
G|------------------21~~~~~-20------------|-19~~~~--17-19~~~~-|-21~~~~~-19-21~~~~~~-|
D|-16~~-14-16~~~~~~------------21~~~~~~~~-|-------------------|---------------------|
A|----------------------------------------|-------------------|---------------------|
E|----------------------------------------|-------------------|---------------------|

Alright John
e|------------------12~~~~~~-11-----------|-------------------|-12~~~~~-10-12~~~~~~-|
B|-7~~~~-5-7~~~~~~~-------------12~~~~~~~-|-15~~~~-13-15~~~~~-|---------------------|
G|----------------------------------------|-------------------|---------------------|
D|----------------------------------------|-------------------|---------------------|
A|----------------------------------------|-------------------|---------------------|
E|----------------------------------------|-------------------|---------------------|
 |                                                                                  |
 |Guitar 2                                                                          |
e|----------------------------------------|-------------------|---------------------|
B|----------------------------------------|-------------------|---------------------|
G|------------------21~~~~~-20------------|-19~~~~--17-19~~~~-|-21~~~~~-19-21~~~~~~-|
D|-16~~-14-16~~~~~~------------21~~~~~~~~-|-------------------|---------------------|
A|----------------------------------------|-------------------|---------------------|
E|----------------------------------------|-------------------|---------------------|


06:40      br              p         b  brp    b        brp                         b  b  b  b  b  b  b
e|-14~~~~-16-12-14~~~~-|-19-14-19-|-19-19--17-19~~~~-|-19--17-19~~~~-17-19~~~~~~-|-21-21-21-21-21-21-21~~~~~~-|
B|---------------------|----------|------------------|---------------------------|----------------------------|
G|---------------------|----------|------------------|---------------------------|----------------------------|
D|---------------------|----------|------------------|---------------------------|----------------------------|
A|---------------------|----------|------------------|---------------------------|----------------------------|
E|---------------------|----------|------------------|---------------------------|----------------------------|

           br             br
e|-14~~~~-16-12-14~~~~-|-16-12-------------------brp-------------------|-----------12------------------|
B|---------------------|-------14~~~~~-12-14~~~-12--10-12~~~-10-12~~~~-|-12-15~~~~----15~~~~~-15-14~~~-|
G|---------------------|-----------------------------------------------|-------------------------------|
D|---------------------|-----------------------------------------------|-------------------------------|
A|---------------------|-----------------------------------------------|-------------------------------|
E|---------------------|-----------------------------------------------|-------------------------------|


--------------------------------
07:09
PICKING
********
e|-9-------9------------9--------9-------9----|-9-----9---------9------9-----9---|
B|---10------10-----12----10-------10------10-|---9-----9----12---9------9-----9-|
G|------11------11-----------11-------11------|-----9-----9---------9------9-----|
D|--------------------------------------------|----------------------------------|
A|--------------------------------------------|----------------------------------|
E|--------------------------------------------|----------------------------------|


e|-7-----7----------7-----7-----7---|-10-------10-------10-|-12-------12-------10-|
B|---7-----7----10----7-----7-----7-|----12-------12-------|----12-------12-------|
G|-----8-----8----------8-----8-----|-------12-------12----|-------12-------12----|
D|----------------------------------|----------------------|----------------------|
A|----------------------------------|----------------------|----------------------|
E|----------------------------------|----------------------|----------------------|X4 and a bit :)


ENJOY.............

Comment this song and these guitar tabs

Do you have corrections, comments on the guitar tabs, thoughts about the song or a message to the author? Write them below.