Log in

One click and you are in

Login with Facebook Login with Google

Why sign up and log in

Guitar Tabs Explorer
Marduk tabs for World of blades

Guitar tabs with lyrics

-------------------------------------------------------------------------------
                             World Of Blades - Marduk
-------------------------------------------------------------------------------


Tuning: A chord diagramD MajorD Drop:  D-A-d-G-B-e

| /   slide up
|    slide down
| x   Muted note
| v   Accented Down Strum
| ^   Accented Up Strum
Riff A. (Clean Guitar).
Count:  1. 2  3  4  5  6     2. 2  3  4  5  6     3. 2  3  4  5  6     4. 2  3  4  5  6
   e||--------------------|--------------------|--------------------|--------------------|
   A chord diagramBB||-----------6--6--6--|--6-----6--6--6--6--|--6--5--5--5--5--5--|--5-4--4--4--4--4--|
   A chord diagramG+G||-----------7--7--7--|--7-----7--7--7--7--|--7--7--7--7--7--7--|--7--7--7--7-6--6--|
   d||-(x)------(0)-------|-(0)------(0)-------|-(0)----------------|-(0)----------------|
   A chord diagramA augmentedA||-(x)----0-----------|--------------------|--------------------|--------------------|
   A chord diagramD MajorD||--0-----------------|--------------------|--------------------|--------------------|

Count:  1. 2  3  4  5  6     2. 2  3  4  5  6     3. 2  3  4  5  6     4. 2  3  4  5  6
    e|--------------------|--------------------|--------------------|--------------------||
    A chord diagramBB|-----------6--6--6--|--6-----6--6--6--6--|--6--5--5--5-4--4--|--4--4--4--4-3--3--||
    A chord diagramG+G|-----------7--7--7--|--7-----7--7--7--7--|--7--7--7--7--7--7--|--7-6--6--6--6--6--||
    d|-(x)------(0)-------|-(0)------(0)-------|-(0)----------------|-(0)----------------||
    A chord diagramA augmentedA|-(0)----0-----------|--------------------|--------------------|--------------------||
    A chord diagramD MajorD|--0-----------------|--------------------|--------------------|--------------------||

Repeat Riff A. (Clean Guitar).
            Riff A. (w/Distortion) x 2.

First Verse:
     Riff B.
Count:  1. 2  3  4  5  6     2. 2  3  4  5  6     3. 2  3  4  5  6     4. 2  3  4  5  6
   e||--------------------|--------------------|--------------------|--------------------|
   A chord diagramBB||--3-----------------|-(3)----------------|-(3)----------------|-(3)----------------|
   A chord diagramG+G||--2-----------------|--2-----------------|--2-----------------|-(2)----------------|
   d||--0-----------------|--0-----------------|--0-----------------|--0-----------------|
   A chord diagramA augmentedA||--0-----------------|--0-----------------|--0-----------------|--0-----------------|
   A chord diagramD MajorD||--0-----------------|--0-----------------|--0-----------------|--0-----------------|

Count:  1. 2  3  4  5  6     2. 2  3  4  5  6     3. 2  3  4  5  6     4. 2  3  4  5  6
    e|--------------------|--------------------|--------------------|--------------------||
    A chord diagramBB|--3-----------------|-----------6--6--6--|--6--5--5--5-4--4--|--4--4--4--4-3--3--||
    A chord diagramG+G|--2-----------------|-(2)-------7--7--7--|--7--7--7--7--7--7--|--7-6--6--6--6--6--||
    d|--0-----------------|--0-------(0)-------|-(0)----------------|-(0)----------------||
    A chord diagramA augmentedA|--0-----------------|--0-----------------|--------------------|--------------------||
    A chord diagramD MajorD|--0-----------------|--0-----------------|--------------------|--------------------||

Repeat Riff B.
            Riff A. (w/Distorion) x 2.

Riff C.
Count:  1. &  a  2. &  a     3. &  a  4. &  a     5. &  a
   e||--------------------|--------------------|------------|
   A chord diagramBB||-----------6--6--6--|--6-(6)(x)----------|------------|
   A chord diagramG+G||-----------7--7--7--|--7-(7)(x)-10-10-10-|-/1110-10--|
   d||--0--------0--0--0--|--0--0-(0)-8--8--8--|-/9-8--8---|
   A chord diagramA augmentedA||--0--------0-(0)----|-(0)-0-----8--8--8--|------------|
   A chord diagramD MajorD||--0--------0--------|----(0)----8--8--8--|------------|

Count:  1. &  a  2. &  a     3. &  a  4. &  a     5. &  a
    e|--------------------|--------------------|------------|
    A chord diagramBB|-----------6--6--6--|--6-(6)(x)----------|------------|
    A chord diagramG+G|-----------7--7--7--|--7-(7)(x)----------|------------|
    d|--0--------0--0--0--|--0--0-(0)-8--8--8--|-/9-8--8---|
    A chord diagramA augmentedA|--0--------0-(0)----|-(0)-0-----6--6--6--|-/7-6--6---|
    A chord diagramD MajorD|--0--------0--------|----(0)-------------|------------|

Count:  1. &  a  2. &  a     3. &  a  4. &  a     5. &  a
    e|--------------------|--------------------|------------|
    A chord diagramBB|-----------6--6--6--|--6-(6)(x)----------|------------|
    A chord diagramG+G|-----------7--7--7--|--7-(7)(x)-10-10-10-|--109--9---|
    d|--0--------0--0--0--|--0--0-(0)-8--8--8--|--8-7--7---|
    A chord diagramA augmentedA|--0--------0-(0)----|-(0)-0-----8--8--8--|------------|
    A chord diagramD MajorD|--0--------0--------|----(0)----8--8--8--|------------|

Count:  1. &  a  2. &  a     3. &  a  4. &  a     5. &  a
    e|--------------------|--------------------|------------||
    A chord diagramBB|-----------6--6--6--|--6-(6)(x)----------|------------||
    A chord diagramG+G|-----------7--7--7--|--7-(7)(x)----------|------------||
    d|--0--------0--0--0--|--0--0-(0)-8--8--8--|--8-7--7---||
    A chord diagramA augmentedA|--0--------0-(0)----|-(0)-0-----6--6--6--|--6-5--5---||
    A chord diagramD MajorD|--0--------0--------|----(0)-------------|------------||

Drum & Bass Break:

Second Verse:
     Riff B. x 2.
     Riff A. (w/Distorion) x 2.
     Riff C.



Riff D. (Clean Guitar).
Accent:  v           ^              v   ^
 Count:  1   e   &   a      2   e   &   a
     e||------------------|------------------|      Strumming
     A chord diagramBB||-(3)--------------|-------------(3)--|  N:   Pattern
     A chord diagramG+G||-(2)---------(2)--|---------(2)-(2)--|  O:  Continues
     d||--0--(x)--0---0---|--0---0---0---0---|  T:  Throughout
     A chord diagramA augmentedA||--0--(x)--0---0---|--0---0---0---0---|  E:    Next
     A chord diagramD MajorD||--0--(x)--0---0---|--0---0---0---0---|       Section.

Repeat Riff A chord diagramD MajorD x 3 (to complete the 4 bars)


Note: For the sake of simplicity, I have just tabbed the chords shapes
       for Riffs only, as the strumming pattern has been established
       already above in Riff D.


Riff E. (Clean Guitar).
Count:  1   e   &   a      2   e   &   a      3   e   &   a      4   e   &   a
    e|------------------|------------------|------------------|-----------------|
    A chord diagramBB|------------------|------------------|------------------|-----------------|
    A chord diagramG+G|--5---------------|------------------|--3---------------|-----------------|
    d|--3---------------|------------------|--2---------------|-----------------|
    A chord diagramA augmentedA|--0---------------|------------------|--0---------------|-----------------|
    A chord diagramD MajorD|--0---------------|------------------|--0---------------|-----------------|


Riff A chord diagramD MajorD x 4.


Riff F. (Clean Guitar).
Count:  1   e   &   a      2   e   &   a      3   e   &   a      4   e   &   a
    e|------------------|------------------|------------------|-----------------|
    A chord diagramBB|------------------|------------------|------------------|-----------------|
    A chord diagramG+G|--5---------------|------------------|--3---------------|-----------------|
    d|--5---------------|------------------|--2---------------|-----------------|
    A chord diagramA augmentedA|--0---------------|------------------|--0---------------|-----------------|
    A chord diagramD MajorD|--0---------------|------------------|--0---------------|-----------------|


Riff A chord diagramD MajorD x 4.
     Riff E.
     Riff A chord diagramD MajorD x 4.
     Riff F.


Riff G.
Count:  1   e   &   a      2   e   &   a      3   e   &   a      4   e   &   a
    e|------------------|------------------|------------------|-----------------||
    A chord diagramBB|------------------|------------------|------------------|-----------------||
    A chord diagramG+G|--5---------------|------------------|--5---------------|-----------------||
    d|--5---------------|------------------|--5---------------|-----------------||
    A chord diagramA augmentedA|--0---------------|------------------|--0---------------|-----------------||
    A chord diagramD MajorD|--0---------------|------------------|--0---------------|-----------------||


Riff A chord diagramD MajorD x 4.
     Riff E.
     Riff A chord diagramD MajorD x 4.
     Riff F.
     Riff A chord diagramD MajorD x 4.
     Riff E.
     Riff A chord diagramD MajorD x 4.
     Riff F.
     Riff G.



Riff A.(w/Distorion) x 2.
     Riff B. X 2.
     Riff A.(w/Distorion) x 2.
     Riff C.

Drum & Bass Break:


Note: Again, for the sake of simplicity, I have just tabbed the chords shapes
       and additional fingerings as they are required (for both Riffs H. & I.)
       as the right hand is consistantly strumming the full chords throughout.


ENDING...
     Riff H. (w/Distortion).
Count:  1. 2  3  4  5  6     2. 2  3  4  5  6     3. 2  3  4  5  6     4. 2  3  4  5  6
    e|--------------------|--------------------|--------------------|--------------------|
    A chord diagramBB|--------------------|--------------------|--------------------|--------------------|
    A chord diagramG+G|--------------------|--------------------|--------------------|--------------------|
    d|--8-----------------|--------------------|--------------------|--(8)------5--------|
    A chord diagramA augmentedA|--5-----------------|--------------------|--------------------|--(5)-----(5)-------|
    A chord diagramD MajorD|--5-----------------|--------------------|--------------------|--(5)-----(5)-------|

Count:  1. 2  3  4  5  6     2. 2  3  4  5  6     3. 2  3  4  5  6     4. 2  3  4  5  6
    e|--------------------|--------------------|--------------------|--------------------|
    A chord diagramBB|--------------------|--------------------|--------------------|--------------------|
    A chord diagramG+G|--------------------|--------------------|--------------------|--------------------|
    d|--7--------10-------|--7-----------------|--------------------|--------------------|
    A chord diagramA augmentedA|--0-------(0)-------|-(0)----------------|--------------------|--------------------|
    A chord diagramD MajorD|--0-------(0)-------|-(0)----------------|--------------------|--------------------|

Count:  1. 2  3  4  5  6     2. 2  3  4  5  6     3. 2  3  4  5  6     4. 2  3  4  5  6
    e|--------------------|--------------------|--------------------|--------------------|
    A chord diagramBB|--------------------|--------------------|--------------------|--------------------|
    A chord diagramG+G|--------------------|--------------------|--------------------|--------------------|
    d|--8-----------------|--------------------|--------------------|--(8)------5--------|
    A chord diagramA augmentedA|--5-----------------|--------------------|--------------------|--(5)-----(5)-------|
    A chord diagramD MajorD|--5-----------------|--------------------|--------------------|--(5)-----(5)-------|

Count:  1. 2  3  4  5  6     2. 2  3  4  5  6     3. 2  3  4  5  6     4. 2  3  4  5  6
    e|--------------------|--------------------|--------------------|--------------------||
    A chord diagramBB|--------------------|--------------------|--------------------|--------------------||
    A chord diagramG+G|--------------------|--------------------|--------------------|--------------------||
    d|--7--------10-------|--10-------7--------|--------------------|--------------------||
    A chord diagramA augmentedA|--0-------(0)-------|--7-------(7)-------|--------------------|--------------------||
    A chord diagramD MajorD|--0-------(0)-------|--7-------(7)-------|--------------------|--------------------||


Riff I.
Count:  1. 2  3  4  5  6     2. 2  3  4  5  6     3. 2  3  4  5  6     4. 2  3  4  5  6
   e||--------------------|--------------------|--------------------|--------------------|
   A chord diagramBB||--------------------|--------------------|--------------------|--------------------|
   A chord diagramG+G||--10----------------|--------------------|--------------------|-(10)------7--------|
   d||--0-----------------|--------------------|--------------------|-(0)------(0)-------|
   A chord diagramA augmentedA||--0-----------------|--------------------|--------------------|-(0)------(0)-------|
   A chord diagramD MajorD||--0-----------------|--------------------|--------------------|-(0)------(0)-------|

Count:  1. 2  3  4  5  6     2. 2  3  4  5  6     3. 2  3  4  5  6     4. 2  3  4  5  6
    e|--------------------|--------------------|--------------------|--------------------|
    A chord diagramBB|--------------------|----------(10)------|--------------------|--------------------|
    A chord diagramG+G|--9--------12-------|--9-------(9)-------|--------------------|--------------------|
    d|--0-------(0)-------|--7-------(7)-------|--------------------|--------------------|
    A chord diagramA augmentedA|--0-------(0)-------|--0-------(0)-------|--------------------|--------------------|
    A chord diagramD MajorD|--0-------(0)-------|-(x)------(x)-------|--------------------|--------------------|

Count:  1. 2  3  4  5  6     2. 2  3  4  5  6     3. 2  3  4  5  6     4. 2  3  4  5  6
   e||--------------------|--------------------|--------------------|--------------------|
   A chord diagramBB||--------------------|--------------------|--------------------|--------------------|
   A chord diagramG+G||--10----------------|--------------------|--------------------|-(10)------7--------|
   d||--0-----------------|--------------------|--------------------|-(0)------(0)-------|
   A chord diagramA augmentedA||--0-----------------|--------------------|--------------------|-(0)------(0)-------|
   A chord diagramD MajorD||--0-----------------|--------------------|--------------------|-(0)------(0)-------|

Count:  1. 2  3  4  5  6     2. 2  3  4  5  6     3. 2  3  4  5  6     4. 2  3  4  5  6
    e|--------------------|--------------------|-(x)----------------|--------------------||
    A chord diagramBB|--------------------|--5-----------------|-(5)----------------|--------------------||
    A chord diagramG+G|--9--------12-------|--5-----------------|-(5)----------------|--------------------||
    d|--0-------(0)-------|-(0)----------------|-(0)----------------|--------------------||
    A chord diagramA augmentedA|--0-------(0)-------|-(0)----------------|-(0)----------------|--------------------||
    A chord diagramD MajorD|--0-------(0)-------|-(x)----------------|-(x)----------------|--------------------||


Riff H.
     Riff I.

Repeat Riffs H. & I. to Fade-Out...

Almost there ...

Sign in to get your own page with links to favourite songs and more. You are just one click away...

Login with Facebook Login with Google