Log in

One click and you are in

Login with Facebook Login with Google

Why sign up and log in

Guitar Tabs Explorer
Marduk chords for Dark endless

Guitar chords with lyrics

FROM CHEROUBIN
 So, at the beginning, just read the following words to get smarter:

   -I am from Poland so I don't know how my English correct is.
   -This is totally my own work, cause I couldn't find any                 =
transcriptions of this song. I am not a plagiarist, ha, just           reme=
mber it well.
   -I have only accoustic guitar, not electric, so some of teqniques       =
used in song are unknown to me. In these parts I may be mistaken;      you =
know, wrong octave or something else. My Yamaha cannot play        thrill n=
ote or other shit. BUT it is very good guitar...
   -Then, I am not professional player and tablatures' creator, so I       =
don't use weird signs like those guys, who make Metallica's            tran=
scriptions. So, the way is simple, all distortions are to          analyze,=
 I use only my hearing and microphone, funny, isn't it?
   -I am not patient enough to write monumental tables, so timing and      =
beating are to check on. I put here only main idea, you know.
   -All comments please send on
				     cheroubin@poczta.onet.pl

   -It's very important to me, to exchange transcriptions and              =
experience
   -If you have any transcriptions of metal bands' songs, just please      =
send me (Cradle of Filth, Marduk, Hades, Anathema, Annihilator,        Mano=
war or Mercyful Fate, hehe, maybe Offspring...)
   -Thank you, and there is:


MARDUK
"Dark endless" from "Fuck me Jesus" album
11.02.2001
from Cheroubin


	So, here is the long expected ravishing song, that I announced. It's my fa=
vourite from "Fuck me Jesus" album, so I decided to transcribe it here. I k=
now, my abilities are not as big as professionals but my tab is, I think, c=
lose to ingenious original version. Just see it and wait for another transc=
riptions, who knows, maybe "Echoes from the past" ...

1.Intro. A chord diagramA augmentedA most weird part, Marduk has ever spawned. Construction of distor=
ted two different guitars, so it had been hard to write it perfectly. Bette=
r I can't make it. Sorry.
E-|------------------------------------------v-|
B-|-------v-----------------------v---9-9-9-10-|  I think, that all
G-|-----9-8-------8-9-8-v-------9-8------------| notes at E-string and
D-|---------------------9----------------------| A-string plays bass
A-|-----------------------------------9-9-9--9-|    guitar
E-|-9---------9-------------9------------------|

2.Here's the elecrtic version of previous riff.
E-|--------------------------------damp---|
B-|--------------------------------here---|
G-|-6--9-8---6--8-9-8-4---6--9-8---8-8--9-|   several times
D-|-6--9-8---6--8-9-8-4---6--9-8---8-8--9-|
A-|-4--7-6---4--6-7-6-2---4--7-6---6-6--7-|
E-|---------------------------------------|


3.The Haughty Riff. Ufff, it was the hardest piece to transcribe but I've m=
ade it. Really cool riff. Play it very fast several times.
E-|-------------------------|----------------------|
B-|-------------------------|----------------------|
G-|-6--6--7-----------------|-6--6--7--------------|
D-|-6--6--7-8-7--6--7--8--6-|-6--6--7-8-7--6--7--9-|
A-|-4--4--5-8-7--6--7--8--6-|-4--4--5-8-7--6--7--9-|
E-|---------6-5--4--5--6--4-|---------6-5--4--5--7-|


4.The Grotesque Riff - very doomy part play in heavy beating.
E-|----------------------|
B-|----------------------|
G-|-6--5--------6--5-9-8-|
D-|-6--5-7-6----6--5-9-8-|
A-|-4--3-7-6----4--3-7-6-|
E-|------5-4-------------|

5.The Celestial Riff - much lighter than previous. Play these two supernal =
parts several times.
E-|-------------------|
B-|-------------------|
G-|-8/10-8/10-3-3-2-2-|
D-|-8/10-8/10-3-3-2-2-|
A-|-6/-8-6/-8-1-1-0-0-|
E-|-------------------|


6.Here comes once again point 4, and then point 3.


7.The Plained Riff. It is easier version of The Haughty Riff.
E-|------------|
B-|------------|
G-|-6--7-----7-|         but I'm not very sure of this part
D-|-6--7--7--7-|
A-|-4--5--7--5-|
E-|-------5----|


8.The Fatherous Riff, just the outro.
E-|-----------------------|
B-|-----------------------|
G-|-6-6-6-/-9-9-9-\-6-----|  let ring very long time
D-|-6-6-6-/-9-9-9-\-6-etc-|
A-|-4-4-4-/-7-7-7-\-4-----|
E-|-----------------------|


				THE END

TO ALL FALLEN IN LOVE WITH MARDUK, COF, HADES, KING
PLEASE E-MAIL ME    cheroubin.poczta.onet.pl

Almost there ...

Sign in to get your own page with links to favourite songs and more. You are just one click away...

Login with Facebook Login with Google