Log in

One click and you are in

Login with Facebook Login with Google

Why sign up and log in

Guitar Tabs Explorer
Marduk tabs for Autumnal reaper

Guitar tabs with lyrics

FROM CHEROUBIN
 So, at the beginning, just read the following words to get smarter:

   -I am from Poland so I don't know how my English correct is.
   -This is totally my own work, cause I couldn't find any                 =
transcriptions of this song. I am not a plagiarist, ha, just           reme=
mber it well.
   -I have only accoustic guitar, not electric, so some of teqniques       =
used in song are unknown to me. In these parts I may be mistaken;      you =
know, wrong octave or something else. My Yamaha cannot play        thrill n=
ote or other shit. BUT it is very good guitar...
   -Then, I am not professional player and tablatures' creator, so I       =
don't use weird signs like those guys, who make Metallica's            tran=
scriptions. So, the way is simple, all distortions are to          analyze,=
 I use only my hearing and microphone, funny, isn't it?
   -I am not patient enough to write monumental tables, so timing and      =
beating are to check on. I put here only main idea, you know.
   -All comments please send on
				     cheroubin@poczta.onet.pl

   -It's very important to me, to exchange transcriptions and              =
experience
   -If you have any transcriptions of metal bands' songs, just please      =
send me (Cradle of Filth, Marduk, Hades, Cirith Gorgor, Anathema,      Anni=
hilator,        Manowar or Mercyful Fate, hehe, maybe              Offsprin=
g...)
   -Thank you, and there is:


MARDUK
"Autumnal reaper" from "Opus Nocturne" album
03.03.2001
from Cheroubin by Black Metal Determined


	So, we've got cold, snowy evening behind the window, and it's not good to =
move my ass outside. There are high piles of books on my bed, yeah, I guess=
, nine weeks to my diploma-exam left. But, I have a little time to take my =
black Yamaha in my hands and "break" this very easy and cool song. So, the =
arduk's orgasmic creations. Just look and play it right...

1.O.K. so the INTRO is
E-|--------------------|----------|-----------|
B-|--------------------|----------|-----------|
G-|-11\4-4-4-12-12-9-9-|-11\4-4-4-|-12-12-9-9-|
D-|-11\4-4-4-12-12-9-9-|-11\4-4-4-|-12-12-9-9-| _
A-|--9\2-2-2-10-10-7-7-|--9\2-2-2-|-10-10-7-7-|  \
E-|--------------------|----------|-----------|   \
                                                  |
					so this third part play
                                   with two guitars, the second
                                   slays this one _
                   				   \
   						   |
    G-|-8-8-7-7-|  _______________________________/
    D-|-8-8-7-7-|
    A-|-6-6-5-5-|
                           and all three times


2.Then comes my favourite part of this song, just call it CHAR.
E-|----------------------------------------------------------|
B-|----------------------------------------------------------|
G-|-9-9-11-11-12-12-14-14-14-14-12-12-11-11-9-9-9-11-7-7-7-7-|  all
D-|-9-9-11-11-12-12-14-14-14-14-12-12-11-11-9-9-9-11-7-7-7-7-|   x2
A-|-7-7--9--9-10-10-12-12-12-12-10-10--9--9-7-7-7--9-5-5-5-5-|
E-|----------------------------------------------------------|


3.Here we hear vocal in this RISING part.
E-|----------------|
B-|----------------|
G-|----------------|    the fill is:  G-|-6-13-14-11-| as I
D-|----6--4--7--4--|                  D-|-6-13-14-11-|  think
A-|-4--------------|                  A-|-4-11-12--9-| and hope
E-|----------------|
                              all x8


4.To lick the next part as I called it MYST.
E-|-----------------|-----------------|
B-|-----x2----------|-----x2----------|
G-|-8-8-8-8-9-9-9-9-|-6-6-6-6-7-7-7-7-|  that is the fill
D-|-8-8-8-8-9-9-9-9-|-6-6-6-6-7-7-7-7-|    but extremely hard to
A-|-6-6-6-6-7-7-7-7-|-4-4-4-4-5-5-5-5-|     hear riff I transcribed
E-|-----------------|-----------------|  just   here:

E-|-----------------|-----------------|
B-|------x2---------|-----x2----------|
G-|-8-8-8-8-9-9-8-9-|-6-6-6-6-7-7-6-7-|    just here
D-|-8-8-8-8-9-9-8-9-|-6-6-6-6-7-7-6-7-|
A-|-6-6-6-6-7-7-6-7-|-4-4-4-4-5-5-4-5-|      and all two times
E-|-----------------|-----------------|


5.Bass pick-riff. Cool!!! Play it just like RISING part.


6.Then,
  	CHAR x2
  	INTRO x4
  	MYST x2

7.GROTESQUE riff. Oh, yeah... easy and cool.
E-|-----------------------|----------------------|
B-|-----------------------|----------------------|
G-|-8-8-9-11-11-9-8-8-8-8-|-8-8-9-11-11-12-11-11-|
D-|-8-8-9-11-11-9-8-8-8-8-|-8-8-9-11-11-12-11-11-|   x2
A-|-6-6-7--9--9-7-6-6-6-6-|-6-6-7--9--9-10--9--9-|
E-|-----------------------|----------------------|


8.GROTESQUE riff once again but little changed, no bass and drums. Its fill=
 is:
E-|-----|
B-|-----|
G-|--9--|
D-|--9--|
A-|--7--|
E-|-----|


9.And again, GROTESQUE riff.


10.This riff I called DEEP.
E-|---------------|---------------|
B-|---------------|---------------|
G-|-2-2-4-6-6-7-6-|-2-2-4-6-6-7-5-| all four times
D-|-2-2-4-6-6-7-6-|-2-2-4-6-6-7-5-|
A-|-0-0-2-4-4-5-4-|-0-0-2-4-4-5-3-|
E-|---------------|---------------|


11.MYST once again two times, ufff...I lick the bloody sweat from my Yoko b=
lack guitar. It's really hard to write it, no time, you know.


12.And, at last, OUTRO.
E-|-----|
B-|-----|
G-|--8--|    and let it ring...
D-|--8--|
A-|--6--|
E-|-----|


13.Yeah, it was very easy to transcribe but I say, the lack of time preciou=
s (exams) makes me hurry and maybe incorrect, just listen to the song and c=
heck on. Of course e-mail me if it is not as good as you see. I'll be waiti=
ng...


			THE END

TO ALL FALLEN IN LOVE WITH MARDUK, COF, HADES, KING
PLEASE E-MAIL ME    cheroubin@poczta.onet.pl

Almost there ...

Sign in to get your own page with links to favourite songs and more. You are just one click away...

Login with Facebook Login with Google