Log in

One click and you are in

Login with Facebook Login with Google

Why sign up and log in

Guitar Tabs Explorer
Marcy Playground bass tabs for Sex and candy

Bass tabs

Tabbed By : Anthony Tootoosis
e-mail: eye_rawk_not@hotmail.com

This is a easy song to learn its pretty accurate i think.If it sounds bad contact
ill fix it thanx
good luck:D!!


G|---------------------------------------------------------------------------|
D|---------------------------------------------------------------------------|
A|--222--0-2-0-222-----------------------------------------------------------|
E|-------------------33--22--------------------------------------------------|
play the above three times the end with the below


G|--------------------------------------------------------------------------|
D|--------------------------------------------------------------------------|
A|---222----0-2-0-222-------------------------------------------------------|
E|----------------------33--2222222-----------------------------------------|


Chorus:when saying "i smell sex and" dont play.play on caandy here mhhm.do
that every time
PLay 3 times

G|---------------------------------------------------------------------------|
D|---------------------------------------------------------------------------|
A|---------22----00----------------------------------------------------------|
E|------------33-------------------------------------------------------------|


pre:
G|---------------------------------------------------------------------------|
D|---------------------------------------------------------------------------|
A|---55----------------------------------------------------------------------|
E|---------55---77---33------------------------------------------------------|
play three times then on the fourth

G|---------------------------------------------------------------------------|
D|---------------------------------------------------------------------------|
A|-----55--------------------------------------------------------------------|
E|-----------55-----77----33----2222222--------------------------------------|
end on:

|-----
|-----
|-----
|-----
|--5--
|-----


| / slide up
| \ slide down
| h hammer-on
| p pull-off
| ~ vibrato
| + harmonic
| x Mute note

Almost there ...

Sign in to get your own page with links to favourite songs and more. You are just one click away...

Login with Facebook Login with Google