Log in

One click and you are in

Login with Facebook Login with Google

Why sign up and log in

Guitar Tabs Explorer
Marcy Playground tabs for Poppies

Guitar tabs

POPPIES
BY: MARCY PLAGROUND
TRANSCRIBED BY: MIKE HARROD (m.harrod@worldnet.att.net)


This is a neat sounding song that is really easy to play
(right up my alley!!)

Practice the timing of the intro single notes and attack
them SHARP and HARD to get that deep buzz tone. Have Fun!

(Please send any corrections or comments to:
m.harrod@worldnet.att.net)

Will someone please post some PAT TRAVERS TAB !!!
e----------------------------------------------------------|
E----------------------------------------------------------|
E-1---2p1---4-----1---2p1---4-----1---2p4---4-----1--------|
E----------------------------------------------------------|
E----------------------------------------------------------|
E---0-----0---0-----0-----0---0-----0-----0---0-----0------|


e----------------------------------------------------------|
E------------------------x-x-x-9-9-x-x-------x-x-x-9-9-x-x-|
E-4-4-4-4--4-4-4-4--2-2--x-x-x-9-9-x-x--2-2--x-x-x-9-9-x-x-|
E-4-4-4-4--4-4-4-4--2-2--x-x-x-9-9-x-x--2-2--x-x-x-9-9-x-x-|
E-2-2-2-2--2-2-2-2--2-2--x-x-x-7-7-x-x--2-2--x-x-x-7-7-x-x-|
E----------------------------------------------------------|


e------x-x-x-----------------------------------------------|
E------x-x-x-----------------------------------------------|
E-2-2--x-x-x-9-9-9--4-4-4-4--4-4-4-4-----------------------|
E-2-2--x-x-x-9-9-9--4-4-4-4--4-4-4-4-----------------------|
E-2-2--x-x-x-7-7-7--2-2-2-2--2-2-2-2-----------------------|
E----------------------------------------------------------|

REPEAT AS NECESSARY

Other versions of Poppies

PoppiesChords

Almost there ...

Sign in to get your own page with links to favourite songs and more. You are just one click away...

Login with Facebook Login with Google