Log in

One click and you are in

Login with Facebook Login with Google

Why sign up and log in

Guitar Tabs Explorer
Marcy Playground tabs for One more suicide

Guitar tabs

Marcy Playground
One More Suicide
>From "Marcy Playground"
Words and Music by John Wozniak
Tabbed by Ben Coddington
Listen to the song for the rhythm... it has a slow
swinging beat and the hammers really bring out the chords

--------------------------------------------------------------------

Heres the intro:

    A chord diagramE minorEm
e:--0-----------------0--0--|--0-----------------0--0--|
B:--0-----------------0--0--|--0-----------------0--0--|
G:--0-----0--0--0-----0--0--|--0-----0--0--0-----0--0--|
D:--2-----2--2--2-----2--2--|--2-----2--2--2-----2--2--|
A:--2-----2--2--0-h2--2--2--|--2-----2--2--0-h2--2--2--|
E:--0-----0--0--0-----0--0--|--0-----0--0--0-----0--0--|



Verse

    A chord diagramE minorEm                         A chord diagramA minorAm
e:--0-----------------0--0--|--0-----------------0--0--|
B:--0-----------------0--0--|--1-----------------1--1--|
G:--0-----0--0--0-----0--0--|--2-----2--2--2-----2--2--|
D:--2-----2--2--2-----2--2--|--2-----2--2--0-h2--2--2--|
A:--2-----2--2--0-h2--2--2--|--0-----0--0--0-----0--0--|
E:--0-----0--0--0-----0--0--|--x-----------------x--x--|

    Christopher OMalley ...



    A chord diagramC majorC                          A chord diagramG+G
e:--0-----------------0--0--|--3-----3--3--3-----------|
B:--1-----1--1--1-----1--1--|--3-----3--3--3-----------|
G:--0-----0--0--0-----0--0--|--0-----0--0--0-----0-0-2-|
D:--2-----2--2--0-h2--2--2--|--0-----0--0--0-----0-0-0-|
A:--3-----3--3--3-----3--3--|--2-----2--2--2-----2-2-0-|
E:--x-----------------x--x--|--3-----3--3--3-----3-3-2-|

    Down in                    Chehalis...


    A chord diagramE minorEm                         A chord diagramA minorAm
e:--0-----------------0--0--|--0-----------------0--0--|
B:--0-----------------0--0--|--1-----------------1--1--|
G:--0-----0--0--0-----0--0--|--2-----2--2--2-----2--2--|
D:--2-----2--2--2-----2--2--|--2-----2--2--0-h2--2--2--|
A:--2-----2--2--0-h2--2--2--|--0-----0--0--0-----0--0--|
E:--0-----0--0--0-----0--0--|--x-----------------x--x--|

    Clutchin his Bible and a   ....

    A chord diagramC majorC                          A chord diagramG+G
e:--0-----------------0--0--|--3-----3--3--3-----3--3--|
B:--1-----1--1--1-----1--1--|--3-----3--3--3-----3--3--|
G:--0-----0--0--0-----0--0--|--0-----0--0--0-----0--0--|
D:--2-----2--2--0-h2--2--2--|--0-----0--0--0-----0--0--|
A:--3-----3--3--3-----3--3--|--2-----2--2--2-----2--2--|
E:--x-----------------x--x--|--3-----3--3--3-----3--3--|

    Fell  in      to ....



Chorus:

     A chord diagramA minorAm                         A chord diagramG+G
e:--0-----------------0--0--|--3-----------------2--2--|
B:--1-----1--1--1-----1--1--|--3-----------------2--2--|
G:--2-----2--2--2-----2--2--|--0-----0--0--0-----0--0--|
D:--2-----2--2--0-h2--2--2--|--0-----0--0--0-----0--0--|
A:--0-----0--0--0-----0--0--|--2-----2--2--0-h2--2--2--|
E:--x-----------------x--x--|--3-----3--3--3-----3--3--|

     Pity        no  one  was  ...


    A chord diagramA minorAm                         A chord diagramG+G
e:--0-----------------0--0--|--3-----------------2--2--|
B:--1-----1--1--1-----1--1--|--3-----------------2--2--|
G:--2-----2--2--2-----2--2--|--0-----0--0--0-----0--0--|
D:--2-----2--2--0-h2--2--2--|--0-----0--0--0-----0--0--|
A:--0-----0--0--0-----0--0--|--2-----2--2--0-h2--2--2--|
E:--x-----------------x--x--|--3-----3--3--3-----3--3--|

    No angels ..               in the air..


    A chord diagramA minorAm                         A chord diagramG+G
e:--0-----------------0--0--|--3-----------------3--3--|
B:--1-----1--1--1-----1--1--|--3-----------------3--3--|
G:--2-----2--2--2-----2--2--|--0-----0--0--0-----0--0--|
D:--2-----2--2--0-h2--2--2--|--0-----0--0--0-----0--0--|
A:--0-----0--0--0-----0--0--|--2-----2--2--0-h2--2--2--|
E:--x-----------------x--x--|--3-----3--3--3-----3--3--|

    And the morning            ....


    A chord diagramC majorC                          A chord diagramA minorAm
e:--0-----------------0--0--|--0-----------------0--0--|
B:--1-----1--1--1-----1--1--|--1-----1--1--1-----1--1--|
G:--0-----0--0--0-----0--0--|--2-----2--2--2-----2--2--|
D:--2-----2--2--0-h2--2--2--|--2-----2--2--0-h2--2--2--|
A:--3-----3--3--3-----3--3--|--0-----0--0--0-----0--0--|
E:--0-----------------0--0--|--x-----------------x--x--|

    One more                   ....


    A chord diagramG+G           A chord diagramD MajorD              A chord diagramG+G
e:--3-----3--3--2-----2--2--|--3-----------------------|
B:--3-----3--3--3-----3--3--|--3-----------------------|
G:--0-----0--0--2-----2--2--|--0-----------------------|
D:--0-----0--0--0-----0--0--|--0-----------------------|
A:--2-----2--2--0-----0--0--|--2-----------------------|
E:--3-----3--3--------------|--3-----------------------|


His mother stayed by the ....


CoddingtonBJ01.CS16.USAFA@usafa.af.mil

Other versions of One More Suicide

One more suicideChords

Almost there ...

Sign in to get your own page with links to favourite songs and more. You are just one click away...

Login with Facebook Login with Google