Log in

One click and you are in

Login with Facebook Login with Google

Why sign up and log in

Guitar Tabs Explorer
Marcy Playground tabs for Memphis

Guitar tabs with lyrics

Band - Marcy Playground
Song - Memphis
Album – Sex and Candy (single)
Transcriber – Eric Van Allan
Email – randomscreenname@comcast.net
I love this song to teeny tiny pieces. It’s fingerpicked pretty fast, so practice your
sixteenth rolls... the hammer ons make it a hell of a lot easier. Enjoy!

Section 1

e----------------------------------------------------------[-----
B--------3------3--------3------3-------3------3--------------3--
G------2------2--------2------2-------0------2--------------2----
D-0-h3-----0---------------0--------------0------0h2p0---0------- x 2
A-----------------0-h3------------0h2-----------------3----------
E----------------------------------------------------------------
    A chord diagramDmDm     A chord diagramD5D5       Dm7ish A chord diagramD5D5       A chord diagramG+G     A chord diagramD5D5     a run   A chord diagramD5D5

Section 2

e------2--------2------2--------2-----2--------2------2----------------------
B----3--------3------3--------3-----3--------3------3--------------1--------1
G--------0-h2------------0-h2-----------0-h2---------------------2--------2--
D-0---------------0---------------0--------------0-------------------0-h2----
A-------------------------------------------------------3--2--0--------------
E----------------------------------------------------------------------------
  A chord diagramD MajorD                                                           A chord diagramA minorAm
  I                               am  going...                       down


e----------------------------------------------------------------------------
B------1------------1--------1------1--------1------0--------0------3--------
G----2------------0--------0------0--------0------0--------0------0--------0-
D---------------------0-h2------------0-h2-----------------------------------
A-0------0--2--3---------------3----------------------0-h2------------0-h2---
E----------------------------------------------3---------------3-------------
               A chord diagramC majorC                               A chord diagramG+G                      A chord diagramD MajorD
  the  long, lonesome road...            to Memphis...


e--------2--------2------2----------2--------2------2!--
B-3----3--------3------3----------3--------3--------3!--
G----------0-h2------------0-h2-------0-h2----------2!--
D---0---------------0-----------0--------------0----0!-- x 2
A-------------------------------------------------------
E-------------------------------------------------------


I am going down the long lonesome road to Memphis
And I have come from the valley of the damned to Memphis
My love has gone with the devil to the well of poison
But I declare I’ll drink my fill from that well of poison
The lord’s gonna save my soul somewhere in the hills of Memphis
And the lord’s gonna rest my bones somewhere in the hills of Memphis

Other versions of Memphis

MemphisChords

Almost there ...

Sign in to get your own page with links to favourite songs and more. You are just one click away...

Login with Facebook Login with Google