Log in

One click and you are in

Login with Facebook Login with Google

Why sign up and log in

Guitar Tabs Explorer
Marcy Playground chords for Memphis

Guitar chords

#-- File created with Instab - http://www.pconline.com/~smcarey/instab.html

Title: Memphis
Album:  ? ??

Hey if you see anything wrong email me and I will check things out and fix
it. Marcy Playground ROCKs
Just play whats below and it all just gets repeated just listen to it and
you can figure out what comes and goes

----------------------------|-------------------------------------------------
-----3-----3-----3-------3--|-------------------------------------------------
-----0-----0-----0-------2--|-------------------------------------------------
--0h3-0-----0-----0-2h3--0--|-x2----------------------------------------------
--------0h3---0h2------3----|-------------------------------------------------
----------------------------|-------------------------------------------------
played moderatly fast

---------------------------------------------------------------------------|--
----2---2---2---2---2---2-------------------------------3--3----3---3---2--|--
----3---3---3---3---3---3-------------------------------0--0----0---0---3--|--
----0---0---0---0---0---0--------------2--2--2----------2--2----0---0---0--|--
------------------------------3----2---0--0--0-2--------3--3----x---x------|--
----------------------------------------------------------------3---3------|--
    I_________ am goin'______ down the long___ lonesome road to Memphis_

Other versions of Memphis

MemphisTabs

Almost there ...

Sign in to get your own page with links to favourite songs and more. You are just one click away...

Login with Facebook Login with Google