Log in

One click and you are in

Login with Facebook Login with Google

Why sign up and log in

Guitar Tabs Explorer
Marcy Playground tabs for All the lights went out

All The Lights Went Out tab by Marcy Playground

Marcy Playground tabs for All the lights went out

Guitar tabs

All The Lights Went Out-Marcy Playground

-Tabbed By Patrick Taylor-
A chord diagramA augmentedA very easy song to play, just get the fingerings right.
Keep your thumb plucking the 6th string and your index
finger plucking the 4th string. Listen to the song for
rythm.

E------------------------------------------------------
B------------------------------------------------------
G------------------------------------------------------
D----6---6---6---6------7---7---7---7---7--------------
A------------------------------------------------------
E--0---0---0---0------0---0---0---0---0----------------

E------------------------------------------------------
B------------------------------------------------------
G------------------------------------------------------
D----4---4---4---4-------6----6---6----6----6----------
A------------------------------------------------------
E--0---0---0---0------0----0----0---0----0-------------

Almost there ...

Sign in to get your own page with links to favourite songs and more. You are just one click away...

Login with Facebook Login with Google