Log in

One click and you are in

Login with Facebook Login with Google

Why sign up and log in

Guitar Tabs Explorer
The Marías bass tabs for Care for you

Bass tabs

  • Difficulty: Beginner
Tuning: Standard (E A D G)

🎸 Intro:
G|---------------|---------------|---------------|----------------|
D|------6-6.-----|------6-6.-----|------6-6.-----|----------------|
A|------------4\-|------------4\-|------------4\-|2.----2.--------|
E|2/-------------|2--------------|2/-------------|----------------|
 1 + 2 + 3 + 4 + 1 + 2 + 3 + 4 + 1 + 2 + 3 + 4 + 1 + 2 + 3 + 4 +

🎸 Verse 1:
G|---------------|---------------|---------------|----------------|
D|------6-6.-----|------6-6.-----|------6-6.-----|----------------|
A|------------4\-|------------4\-|------------4\-|2-----2/4.--7\--|
E|2/-------------|2--------------|2--------------|----------------|
 1 + 2 + 3 + 4 + 1 + 2 + 3 + 4 + 1 + 2 + 3 + 4 + 1 + 2 + 3 + 4 +

G|---------------|---------------|---------------|----------------|
D|------6-6.-----|------6-6.-----|------6-6.-----|----------------|
A|------------4\-|------------4\-|------------4\-|2.----2.--------|
E|2/-------------|2--------------|2/-------------|----------------|
 1 + 2 + 3 + 4 + 1 + 2 + 3 + 4 + 1 + 2 + 3 + 4 + 1 + 2 + 3 + 4 +

🎸 Verse 2:
G|---------------|---------------|---------------|----------------|
D|------6-6.-----|------6-6.-----|------6-6.-----|----------------|
A|------------4\-|------------4\-|------------4\-|2-----2/4.--7\--|
E|2/-------------|2--------------|2--------------|----------------|
 1 + 2 + 3 + 4 + 1 + 2 + 3 + 4 + 1 + 2 + 3 + 4 + 1 + 2 + 3 + 4 +

G|---------------|---------------|---------------|----------------|
D|------6-6.-----|------6-6.-----|------6-6.-----|----------------|
A|------------4\-|------------4\-|------------4\-|2.--------------|
E|2/-------------|2--------------|2/-------------|----------------|
 1 + 2 + 3 + 4 + 1 + 2 + 3 + 4 + 1 + 2 + 3 + 4 + 1 + 2 + 3 + 4 +

"I know, I know, I know":
G|---------------|---------------|---------------|----------------|
D|------6-6.-----|------6-6.-----|------6-6.-----|----------------|
A|------------4\-|------------4\-|------------4\-|2-----2/4.--7\--|
E|-----/---------|2--------------|2--------------|----------------|
 1 + 2 + 3 + 4 + 1 + 2 + 3 + 4 + 1 + 2 + 3 + 4 + 1 + 2 + 3 + 4 +

G|---------------|---------------|---------------|----------------|
D|------6-6.-----|------6-6.-----|------6-6.-----|----------------|
A|------------4\-|------------4\-|------------4\-|2.----2.--------|
E|2/-------------|2--------------|2/-------------|----------------|
 1 + 2 + 3 + 4 + 1 + 2 + 3 + 4 + 1 + 2 + 3 + 4 + 1 + 2 + 3 + 4 +

🎸 Verse 3:
G|---------------|---------------|---------------|----------------|
D|------6-6.-----|------6-6.-----|------6-6.-----|----------------|
A|------------4\-|------------4\-|------------4\-|2.----2/4.--7\--|
E|2/-------------|2--------------|2--------------|----------------|
 1 + 2 + 3 + 4 + 1 + 2 + 3 + 4 + 1 + 2 + 3 + 4 + 1 + 2 + 3 + 4 +

G|---------------|---------------|---------------|----------------|
D|------6-6.-----|------6-6.-----|------6-6.-----|----------------|
A|------------4\-|------------4\-|------------4\-|2.----2.--------|
E|2/-------------|2--------------|2/-------------|----------------|
 1 + 2 + 3 + 4 + 1 + 2 + 3 + 4 + 1 + 2 + 3 + 4 + 1 + 2 + 3 + 4 +

G|---------------|---------------|---------------|----------------|
D|------6-6.-----|------6-6.-----|------6-6.-----|----------------|
A|------------4\-|------------4\-|------------4\-|2.----2/4.--7\--|
E|2/-------------|2--------------|2--------------|----------------|
 1 + 2 + 3 + 4 + 1 + 2 + 3 + 4 + 1 + 2 + 3 + 4 + 1 + 2 + 3 + 4 +

G|---------------|---------------|---------------|----------------|
D|------6-6.-----|------6-6.-----|------6-6.-----|----------------|
A|------------4\-|------------4\-|------------4.-|----------------|
E|2/-------------|2--------------|2/-------------|----------------|
 1 + 2 + 3 + 4 + 1 + 2 + 3 + 4 + 1 + 2 + 3 + 4 + 1 + 2 + 3 + 4 +

"I know, I know, I know":
G|---------------|---------------|---------------|----------------|
D|------6-6.-----|------6-6.-----|------6-6.-----|----------------|
A|------------4\-|------------4\-|------------4\-|2.----2/4.--7\--|
E|---------------|2--------------|2--------------|----------------|
 1 + 2 + 3 + 4 + 1 + 2 + 3 + 4 + 1 + 2 + 3 + 4 + 1 + 2 + 3 + 4 +

G|---------------|---------------|---------------|----------------|
D|------6-6.-----|------6-6.-----|------6-6.-----|----------------|
A|------------4\-|------------4\-|------------4\-|2.----2/4.---7\-|
E|2/-------------|2--------------|2/-------------|----------------|
 1 + 2 + 3 + 4 + 1 + 2 + 3 + 4 + 1 + 2 + 3 + 4 + 1 + 2 + 3 + 4 +


G|---------------|---------------|---------------|----------------|
D|------6-6.-----|------6-6.-----|------6-6.-----|----------------|
A|------------4\-|------------4\-|------------4\-|2.----2/4.--7\--|
E|2/-------------|2--------------|2--------------|----------------|
 1 + 2 + 3 + 4 + 1 + 2 + 3 + 4 + 1 + 2 + 3 + 4 + 1 + 2 + 3 + 4 +

G|---------------|---------------|---------------|----------------|
D|------6-6.-----|------6-6.-----|------6-6.-----|----------------|
A|------------4\-|------------4\-|------------4\-|2.----2/4.--7\--|
E|2/-------------|2--------------|2/-------------|----------------|
 1 + 2 + 3 + 4 + 1 + 2 + 3 + 4 + 1 + 2 + 3 + 4 + 1 + 2 + 3 + 4 +

🎸 Outro:
G|---------------|---------------|---------------|----------------|
D|------6-6.-----|------6-6.-----|------6-6.-----|----------------|
A|------------4\-|------------4\-|------------4\-|2.----2/4.--7\--|
E|2/-------------|2--------------|2--------------|----------------|
 1 + 2 + 3 + 4 + 1 + 2 + 3 + 4 + 1 + 2 + 3 + 4 + 1 + 2 + 3 + 4 +

G|---------------|---------------|---------------|----------------|
D|------6-6.-----|------6-6.-----|------6-6.-----|----------------|
A|------------4\-|------------4\-|------------4\-|2-----2.--------|
E|2/-------------|2--------------|2/-------------|----------------|
 1 + 2 + 3 + 4 + 1 + 2 + 3 + 4 + 1 + 2 + 3 + 4 + 1 + 2 + 3 + 4 +

******************
. = rest(staccato)
/ = slide up
\ = slide down

Almost there ...

Sign in to get your own page with links to favourite songs and more. You are just one click away...

Login with Facebook Login with Google