Log in

One click and you are in

Login with Facebook Login with Google

Why sign up and log in

Guitar Tabs Explorer
Manual Ponce tabs for Ballet   allegretto

Guitar tabs with lyrics

Ballet & Allegretto - Manual Ponce (1882-1948)

 Tabbed by: The_S

 The_S: I heard Segovia play this piece during a documentary called
        "The Song of the Guitar". This was when I first was interested
        in playing classical guitar, and I was more fascinated by the
        fast-paced songs and took little notice of pieces like this.
        Now I am a little more mature, and have found an elegance in this
        piece which I adore. Just the first few notes of the song catches
        my attention.
        Unfortunately, to allow for some bass notes to be sustained, there
        are some quick chord changes that will require a bit of practice to
        move to.
        The Midi sounds good enough, so you don't really need a recording
        to understand the timing and how the piece should sound. My advice
        is to try to keep the bass notes going for as long as you can
 Tuning: EADGBE (standard)

 Timing: 4/4

 Ballet

  |       |       |       |       |       |       |       |
|----------------------------------------------------------------
|-----5p4-----9~~~~~~-7-------------------7-----------5p4-5------
|---------6---------------6---8p6-----5--------------------------
|----------------------------------------------------------------
|-4---------------0---------------------------3---4---------4-6/7
|---------0-----------------------4------------------------------

  |       |       |       |       |       |       |       |
 -----5-------5-------5p2-4-----------2---3----------------------
 ---5---5---4-------0---------------2---2-2---4-2-----4----------
 -----------------------------------------3---------5------------
 -4-------------------------------1---------------------7\6-4----
 ---------2-----------------0-2h4-----------------------------7-6
 -----------------0-------------------------------4--------------

  |       |       |       |       |       |       |       |
 -------------------------------------2-------2-------2---0-0-2h4
 -----5p4---------------------------2---2---0-----------4--------
 ---------6---------------6---------------------2---1------------
 -------------6-------4-----7-6-4-2-------1----------------------
 -4---------------0----------------------------------------------
 ---------0---------------------------------------0--------------

  |       |       |       |       |       |       |       |
 ---0-5-------2-------0------------------------------------------
 -2-----0---2-----------2-4-----------2--------------------------
 ---------2-----1---2-------------------------6p5-6-----------8p6
 -----------------4-----------------2---6-----4------------------
 -------------------------------------------6-----7--------------
 -----------------------------5---4-------4-----------9---9------

  |       |       |       |       |       |       |       |
 -----------------------------0----------------------------------
 ---------------------2p1-2-------4-------2-----------2p0-1------
 ---6-8p6-5---------1-------------------1-------0---------1---1--
 -6-----------4---2-------------------1-------1-----1------------
 -----------------------------4---2-------1----------------------
 -------------------------------------------------4--------------

  |       |       |       |       |       |       |       |
 ----------------------------------------------------------------
 -----3p2-------------2---2---7-------7-------6-----0------------
 ---4-----1-----------4---2-------------7-------4-----2-1-2-1----
 -4-----------3---4-----------------6-------6-----------------4p2
 -----------------------------------------4----------------------
 ---------------------------------7---------------2--------------

  |       |       |       |       |       |       |       |
 -----------------------0----------------------------------------
 ---------------2---------4-----------2--------------------------
 -------------2-------2---2-----------------3---------6p4-5------
 ---4-6/7---4-------4-----4---------2---------2-----------6------
 -6-------4-------3-----------3---4-----------------6---------7p6
 -----------------------------------------3-------4--------------

  |       |       |       |       |       |       |       |
 ---------------------------------------------------------0------
 -----5p4-----9~~~~~~-7-------------------7-----------5p4--------
 ---------6---------------6---8p6-----5--------------------------
 -------------------------------------------------------------1/2
 -4---------------0---------------------------3---4---------4----
 ---------0-----------------------4------------------------------

  |       |       |       |       |       |       |       |
 ---0------------------------------------------------------------
 -------------4-----2--------------------------------------------
 -----2-----1---------4p2-1---------6---------5---6--------------
 -4-----------------------------------4-------4---6--------------
 ---------2-----------------------0---------6-----7--------------
 -----------------0---------0-2h4---------4-----------9---9------

 Allegretto

  |       |       |       |       |       |       |       |
 -----0-----0---0-----0---------------0---------------0---------------
 -2-----2-3---3---2-----2-3p0---0-2h3-----3---5p3-2-----3-3p2h3p2h3p2-
 -2-----------------2---------1---2-------4---------2-----2-----------
 ---------------------------------------------------------------------
 -0---------------0---------------0---------------0-------------------
 ---------------------------------------------------------------------

  |       |       |       |       |       |       |       |
 -----0-----0---0-----0---------------0---------------0---------------
 -2-----2-3---3---2-----2-3p0---0-2h3-----3---5p3-2-----3-3p2h3p2h3p2-
 -2-----------------2---------1---2-------4---------2-----2-----------
 ---------------------------------------------------------------------
 -0---------------0---------------0---------------0-------------------
 ---------------------------------------------------------------------

  |       |       |       |       |       |       |       |
 -0---2h4-5-5-5-5-----------------0---2h4-5p0-----0--------------
 -3-------2---2---0---5p3-2-2-2-2-3-----------2-----2-0---0------
 -----------------1-------2---2-----------------2-------2-1------
 ----------------------------------------------------------------
 -0---------------0---------------0-----------------------0------
 ----------------------------------------------------------------

  |       |       |       |       |       |       |       |
 -----0-----0---0-----0---------------0---------------0---------------
 -2-----2-3---3---2-----2-3p0---0-2h3-----3---5p3-2-----3-3p2h3p2h3p2-
 -2-----------------2---------1---2-------4---------2-----2-----------
 ---------------------------------------------------------------------
 -0---------------0---------------0---------------0-------------------
 ---------------------------------------------------------------------

  |       |       |       |       |       |       |       |
 -0---2h4-5-5-5-5-----------------0---2h4-5p0-----0--------------
 -3-------2---2---0---5p3-2-2-2-2-3-----------2-----2-0---0------
 -----------------1-------2---2-----------------2-------2-1------
 ----------------------------------------------------------------
 -0---------------0---------------0-----------------------0------
 ----------------------------------------------------------------

  |       |       |       |       |       |       |       |
 -----0-----0---0-----0---------------0--------------------------
 -2-----2-3---3---2-----2-3p0---0-2h3-----3---5p3-0---5p3-2------
 -2-----------------2---------1---2-------4-------1-------2------
 ----------------------------------------------------------------
 -0---------------0---------------0---------------0--------------
 ----------------------------------------------------------------

  |       |       |       |       |       |       |       |
 ----------------------------------------------------------------
 -----5p3-2---------------5---3---2------------------------------
 ----------------------------------------------------------------
 -2---------------2----------------------------------------------
 -0---------------0-------------------------------------------7p6
 ----------------------------------------------------------------

Ballet again

  |       |       |       |       |       |       |       |
 ----------------------------------------------------------------
 -----5p4-----9~~~~~~-7-------------------7-----------5p4-5------
 ---------6---------------6---8p6-----5--------------------------
 ----------------------------------------------------------------
 -4---------------0---------------------------3---4---------4-6/7
 ---------0-----------------------4------------------------------

  |       |       |       |       |       |       |       |
 -----5-------5-------5p2-4-----------2---3----------------------
 ---5---5---4-------0---------------2---2-2---4-2-----4----------
 -----------------------------------------3---------5------------
 -4-------------------------------1---------------------7\6-4----
 ---------2-----------------0-2h4-----------------------------7-6
 -----------------0-------------------------------4--------------

  |       |       |       |       |       |       |       |
 -------------------------------------2-------2-------2---0-0-2h4
 -----5p4---------------------------2---2---0-----------4--------
 ---------6---------------6---------------------2---1------------
 -------------6-------4-----7-6-4-2-------1----------------------
 -4---------------0----------------------------------------------
 ---------0---------------------------------------0--------------

  |       |       |       |       |       |       |       |
 ---0-5-------2-------0------------------------------------------
 -2-----0---2-----------2-4-----------2--------------------------
 ---------2-----1---2-------------------------6p5-6-----------8p6
 -----------------4-----------------2---6-----4------------------
 -------------------------------------------6-----7--------------
 -----------------------------5---4-------4-----------9---9------

  |       |       |       |       |       |       |       |
 -----------------------------0----------------------------------
 ---------------------2p1-2-------4-------2-----------2p0-1------
 ---6-8p6-5---------1-------------------1-------0---------1---1--
 -6-----------4---2-------------------1-------1-----1------------
 -----------------------------4---2-------1----------------------
 -------------------------------------------------4--------------

  |       |       |       |       |       |       |       |
 ----------------------------------------------------------------
 -----3p2-------------2---2---7-------7-------6-----0------------
 ---4-----1-----------4---2-------------7-------4-----2-1-2-1----
 -4-----------3---4-----------------6-------6-----------------4p2
 -----------------------------------------4----------------------
 ---------------------------------7---------------2--------------

  |       |       |       |       |       |       |       |
 -----------------------0----------------------------------------
 ---------------2---------4-----------2--------------------------
 -------------2-------2---2-----------------3---------6p4-5------
 ---4-6/7---4-------4-----4---------2---------2-----------6------
 -6-------4-------3-----------3---4-----------------6---------7p6
 -----------------------------------------3-------4--------------

  |       |       |       |       |       |       |       |
 ---------------------------------------------------------0------
 -----5p4-----9~~~~~~-7-------------------7-----------5p4--------
 ---------6---------------6---8p6-----5--------------------------
 -------------------------------------------------------------1/2
 -4---------------0---------------------------3---4---------4----
 ---------0-----------------------4------------------------------

  |       |       |       |       |       |       |       |
 ---0------------------------------------------------------------|
 -------------4-----2--------------------------------------------|
 -----2-----1---------4p2-1---------6---------5---6--------------|
 -4-----------------------------------4-------4---6--------------|
 ---------2-----------------------0---------6-----7--------------|
 -----------------0---------0-2h4---------4-----------9---9------|

Almost there ...

Sign in to get your own page with links to favourite songs and more. You are just one click away...

Login with Facebook Login with Google