Log in

One click and you are in

Login with Facebook Login with Google

Why sign up and log in

Guitar Tabs Explorer
Manu Chao bass tabs for Me gustas tu

Bass tabs

Tuning: Standard (E A D G)


Intro:

Bass enters at 0:13

"Doce de la noche..."
G|-----------------------|---------------------|-----------------------|---------------------|
D|---------------7-7-7-7-|-----9-------9-9-9-9-|---------------7-7-7-7-|-----9-------9-9-9-9-|
A|-----9------7----------|-7-------7-----------|-----9------7----------|-7-------7-----------|
E|-7-------5-------------|---------------------|-7-------5-------------|---------------------|

Verse 1:

"Me gustan los aviones..."
G|-----------------------|---------------------|-----------------------|---------------------|
D|-----------9---------7-|-----9-------9-9-9-9-|-----------9---------7-|-----9-------9-9-9-9-|
A|--------9---------7----|-7-------7-----------|--------9---------7----|-7-------7-----------|
E|-7---7---------5-------|---------------------|-7---7---------5-------|---------------------|

G|--------------------------|-----------9---------|
D|-----------9--------7-7-7-|--------9-----9--7-9-|
A|--------9---------7-------|-7---7---------------|
E|-7---7--------5-----------|---------------------|


Chorus:

"Qué voy a hacer..."
G|--------------------------|-----------9-------------|--------------------------|-------------------------|
D|-----------9--------7-7-7-|--------9-----9--7-9-9-9-|-----------9--------7-7-7-|-------------------------|
A|--------9---------7-------|-7---7-------------------|--------9---------7-------|-7-----------------------|
E|-7---7--------5-----------|-------------------------|-7---7--------5-----------|-------------------------|


Verse 2:

"Me gusta la moto..."
G|--------------------------|----------------------|--------------------------|----------------------|
D|-----------9--------7-7-7-|--------9--9--------9-|-----------9--------7-7-7-|--------9--9--------9-|
A|--------9---------7-------|-7---7--------7---7---|--------9---------7-------|-7---7--------7---7---|
E|-7---7--------5-----------|----------------------|-7---7--------5-----------|----------------------|

G|--------------------------|--------------------------|--------------------------|
D|-----------9--------7-7-7-|--------9--9--------9-9-9-|-----------9--------7-7-7-|
A|--------9---------7-------|-7---7--------7---7-------|--------9---------7-------|
E|-7---7--------5-----------|--------------------------|-7---7--------5-----------|

G|--------------------------|
D|--------9--9--------9-7-9-|
A|-7---7--------7---7-------|
E|--------------------------|


Chorus:

G|--------------------------|-----------9-------------|--------------------------|-------------------------|
D|-----------9--------7-7-7-|--------9-----9--7-9-9-9-|-----------9--------7-7-7-|-------------------------|
A|--------9---------7-------|-7---7-------------------|--------9---------7-------|-7-----------------------|
E|-7---7--------5-----------|-------------------------|-7---7--------5-----------|-------------------------|


Bridge:

1:24
G|--------------------------|----------------------------|
D|-----------9--------7-7-7-|--------7--9--7--9-14-14-14-|
A|--------9---------7-------|-7---7----------------------|
E|-7---7--------5-----------|----------------------------|

G|--------------------------|-------------------------|
D|-----------9--------7-7-7-|--------7--9--7----9-9-9-|
A|--------9---------7-------|-7---7-------------------|
E|-7---7--------5-----------|-------------------------|


Verse 3:

"Me gusta la cena..."
G|-----------------------|---------------------|-----------------------|
D|-----------9---------7-|-----9-------9-9-9-9-|-----------------------|
A|--------9---------7----|-7-------7-----------|-----------------------|
E|-7---7---------5-------|---------------------|-----------------------|

G|----------------------|--------------------------|----------------------|
D|--------9--9--------9-|-----------9--------7-7-7-|--------9--9--------9-|
A|-7---7--------7---7---|--------9---------7-------|-7---7--------7---7---|
E|----------------------|-7---7--------5-----------|----------------------|


Chorus:

G|--------------------------|-----------9-------------|--------------------------|-------------------------|
D|-----------9--------7-7-7-|--------9-----9--7-9-9-9-|-----------9--------7-7-7-|-------9-9-9-------------|
A|--------9---------7-------|-7---7-------------------|--------9---------7-------|-7---7-------------------|
E|-7---7--------5-----------|-------------------------|-7---7--------5-----------|-------------------------|


Verse 4:

"Me gusta la canella..."
G|-----------------------|
D|-----------------------|
A|-----------------------|
E|-----------------------|

G|--------------------------|-----------9-------------|--------------------------|-----------9-------------|
D|-----------9--------7-7-7-|--------9-----9--7-9-9-9-|-----------9--------7-7-7-|--------9-----9--7-9-9-9-|
A|--------9---------7-------|-7---7-------------------|--------9---------7-------|-7---7-------------------|
E|-7---7--------5-----------|-------------------------|-7---7--------5-----------|-------------------------|

G|--------------------------|-----------9-------9-9-9-|
D|-----------9--------7-7-7-|--------9-----9--7-------|
A|--------9---------7-------|-7---7-------------------|
E|-7---7--------5-----------|-------------------------|


Chorus:

G|--------------------------|-----------9-------------|--------------------------|-------------------------|
D|-----------9--------7-7-7-|--------9-----9--7-9-9-9-|-----------9--------7-7-7-|-------------------------|
A|--------9---------7-------|-7---7-------------------|--------9---------7-------|-7-----------------------|
E|-7---7--------5-----------|-------------------------|-7---7--------5-----------|-------------------------|


Bridge:

2:32
G|--------------------------|----------------------------|
D|-----------9--------7-7-7-|--------7--9--7--9-14-14-14-|
A|--------9---------7-------|-7---7----------------------|
E|-7---7--------5-----------|----------------------------|

G|--------------------------|-------------------------|--------------------------|------------------|
D|-----------9--------7-7-7-|--------7--9--7----9-9-9-|-----------9--------7-7-7-|-----9------9-9-9-|
A|--------9---------7-------|-7---7-------------------|--------9---------7-------|-7-------7--------|
E|-7---7--------5-----------|-------------------------|-7---7--------5-----------|------------------|

G|--------------------------|-------------------------|
D|-----------9--------7-7-7-|-------------------------|
A|--------9---------7-------|-------------------------|
E|-7---7--------5-----------|-------------------------|

G|--------------------------|-----------9-------------|--------------------------|-----------9-------------|
D|-----------9--------7-7-7-|--------9-----9--7-9-9-9-|-----------9--------7-7-7-|--------9-----9--7-9-9-9-|
A|--------9---------7-------|-7---7-------------------|--------9---------7-------|-7---7-------------------|
E|-7---7--------5-----------|-------------------------|-7---7--------5-----------|-------------------------|


Bass Tacet 3:05 - 3:15


Outro:

G|--------------------------|-----------9-------------|-------------------------|
D|-----------9--------7-7-7-|--------9-----9--7-9-9-9-|-------------------------|
A|--------9---------7-------|-7---7-------------------|-------------------------|
E|-7---7--------5-----------|-------------------------|-7-----------------------|

G|--------------------------|-------------------------|-------------------------|
D|--------------------------|-------------------------|-------------------------|
A|--------------------------|-------------------------|-------------------------|
E|--------------------------|-------------------------|-------------------------|

3:29
G|---------------------------|---------------------|---------------------------|
D|---------------------------|---------------------|---------------------------|
A|-7----7----5-7-7-7-5-7-7-7-|---------------------|-7----7----5-7-7-7-5-7-7-7-|
E|---------------------------|-7----7----5----5----|---------------------------|

G|---------------------|---------------------|---------------------|---------------------|
D|---------------------|---------------------|---------------------|---------------------|
A|---------------------|---------------------|---------------------|---------------------|
E|-7----7----7----7----|-7----7----7----7----|-7----7----7----7----|-7----7----7----7----|
ⓘ Bass guitar tab for 'Me Gustas Tu' by Manu Chao, José Manuel Arturo Tomás Chao Ortega, a male reggae artist from Paris, France. Manu Chao was born in 1961. Manu Chao is known for his carefree rock/pop music.

Almost there ...

Sign in to get your own page with links to favourite songs and more. You are just one click away...

Login with Facebook Login with Google