Log in

One click and you are in

Login with Facebook Login with Google

Why sign up and log in

Guitar Tabs Explorer
Manu Chao bass tabs for La vida es una tombola

La Vida Es Una Tombola bass tab by Manu Chao

Manu Chao bass tabs for La vida es una tombola

Bass tabs

Tuning: Standard (E A D G)

Key: E

Difficulty: Novice

Manu Chao
La vida es una tombola
Album: La Radiolina

Key of E
Intro: E Am D B7 (play x2)
  E         Am
G|------------------|------------------|-
D|------99------9---|------------------|-
A|-7~-7----7--7---7-|------77------7---|-
E|------------------|-5~-5----5--5---5-|-
  D         B7
G|------------------|------------------|-
D|------77------7---|------------------|-
A|-5~-5----5--5---5-|------99------9---|-
E|------------------|-7~-7----7--7---7-|-


Verse 1: 00:19
G|------------------|------------------|-
D|------99------9---|------------------|-
A|-7~-7----7--7---7-|------77------7---|-
E|------------------|-5~-5----5--5---5-|-
       E
Si yo fuera Maradona
    Am
viviría como él

G|------------------|------------------|-
D|------77------7---|------------------|-
A|-5~-5----5--5---5-|------99------9---|-
E|------------------|-7~-7----7--7---7-|-
        D
si yo fuera Maradona
        B7
frente a cualquier portería


Verse 2: 00:29
         E
si yo fuera Maradona
      Am
nunca m'equivocaría
        D
si yo fuera Maradona
         B7
perdido en cualquier lugar.


Chorus 1: 00:39
G|------------------|------------------|-
D|------99------9---|------------------|-
A|-7~-7----7--7---7-|------77------7---|-
E|------------------|-5~-5----5--5---5-|-
         E
La vida es una tómbola...
       Am
de noche y de día...

G|------------------|------------------|-
D|------77------7---|------------------|-
A|-5~-5----5--5---5-|------99------9---|-
E|------------------|-7~-7----7--7---7-|-
        D
la vida es una tombola
       B7
y arriba y arriba....


Chorus 2: 00:49 (play like verse 1)
         E
La vida es una tómbola...
       Am
de noche y de día...
        D
la vida es una tombola
       B7
y arriba y arriba....


Verse 3: 01:00 (play like verse 1)
       E
Si yo fuera Maradona
     Am
viviría como él
         D
...mil cohetes... mil amigos
        B7
y lo que venga a mil por cien...


Verse 4: 01:10 (play like verse 1)
       E
si yo fuera Maradona
        Am
saldría en mundiovision
         D
para gritarle a la FIFA
         B7
¡Que ellos son el gran ladrón!


Chorus 3: 01:20 (play like verse 1)
         E
La vida es una tómbola...
       Am
de noche y de día...
        D
la vida es una tombola
       B7
y arriba y arriba....


Instrumental: 01:30
  E         Am
G|------------------|------------------|-
D|------99------9---|------------------|-
A|-7~-7----7--7---7-|------77------7---|-
E|------------------|-5~-5----5--5---5-|-
  D
G|------------------|-
D|------77------7---|-
A|-5~-5----5--5---5-|-
E|------------------|-
La vida es una tómbola... Tombola

E           Am
G|------------------|------------------|-
D|------99------9---|------------------|-
A|-7~-7----7--7---7-|------77------7---|-
E|------------------|-5~-5----5--5---5-|-
  D         B7
G|------------------|------------------|-
D|------77------7---|------------------|-
A|-5~-5----5--5---5-|------99------9---|-
E|------------------|-7~-7----7--7---7-|-
La vida es una tómbola... Tombola tombola...

  E         Am
G|------------------|------------------|-
D|------99------9---|------------------|-
A|-7~-7----7--7---7-|------77------7---|-
E|------------------|-5~-5----5--5---5-|-
Si yo fuera Maradona
viviría como él

  D
G|------------------|-
D|------77------7---|-
A|-5~-5----5--5---5-|-
E|------------------|-
porque el mundo es una bola
que se vive a flor de piel...

(Then play x2)
  E         Am
G|------------------|------------------|-
D|------99------9---|------------------|-
A|-7~-7----7--7---7-|------77------7---|-
E|------------------|-5~-5----5--5---5-|-
  D         B7
G|------------------|------------------|-
D|------77------7---|------------------|-
A|-5~-5----5--5---5-|------99------9---|-
E|------------------|-7~-7----7--7---7-|-



Verse 5: 02:16
G|------------------|------------------|-
D|------99------9---|------------------|-
A|-7~-7----7--7---7-|------77------7---|-
E|------------------|-5~-5----5--5---5-|-
       E
si yo fuera Maradona
       Am
frente a cualquier porquería

G|------------------|------------------|-
D|------77------7---|------------------|-
A|-5~-5----5--5---5-|------99------9---|-
E|------------------|-7~-7----7--7---7-|-
          D
........................
        B7
nunca me equivocaría...


Verse 6: 02:26
        E
Si yo fuera Maradona
        Am
y un partido que ganar
        D
si yo fuera Maradona
         B7
perdido en cualquier lugar...


Chorus 6: 02:37 (play Chorus “6” fading)
G|------------------|------------------|-
D|------99------9---|------------------|-
A|-7~-7----7--7---7-|------77------7---|-
E|------------------|-5~-5----5--5---5-|-
         E
La vida es una tómbola...
       Am
de noche y de día...

G|------------------|------------------|-
D|------77------7---|------------------|-
A|-5~-5----5--5---5-|------99------9---|-
E|------------------|-7~-7----7--7---7-|-
        D
la vida es una tombola
       B7
y arriba y arriba....


Chorus 7: 02:47
G|------------------|------------------|-
D|------99------9---|------------------|-
A|-7~-7----7--7---7-|------77------7---|-
E|------------------|-5~-5----5--5---5-|-
         E
La vida es una tómbola...
       Am
de noche y de día...

G|------------------|------------------|-
D|------77------7---|------------------|-
A|-5~-5----5--5---5-|------99------9---|-
E|------------------|-7~-7----7--7---7-|-
        D
la vida es una tombola
       B7
Tombola, tombola....


Outro / Instrumental: 02:57 fading out
  E         Am
G|------------------|------------------|-
D|------99------9---|------------------|-
A|-7~-7----7--7---7-|------77------7---|-
E|------------------|-5~-5----5--5---5-|-
  D         B7
G|------------------|------------------|-
D|------77------7---|------------------|-
A|-5~-5----5--5---5-|------99------9---|-
E|------------------|-7~-7----7--7---7-|-

Tombola, tombola....

End: 03:17
ⓘ Bass guitar tab for 'La Vida Es Una Tombola' by Manu Chao, José Manuel Arturo Tomás Chao Ortega, a male reggae artist from Paris, France. Manu Chao was born in 1961. Manu Chao is known for his carefree rock/pop music.

Almost there ...

Sign in to get your own page with links to favourite songs and more. You are just one click away...

Login with Facebook Login with Google