Log in

One click and you are in

Login with Facebook Login with Google

Why sign up and log in

Guitar Tabs Explorer
Manu Chao bass tabs for Clandestino

Bass tabs

Intro :

G |----------------|----------------|
D |--4-----4-------|--4-----4-------|
A |-----4-----4----|-----4-----4----|
E |----------------|----------------|
Verses :
2x:
G |----------------|----------------|----------------|--6-----------6--4--2--1--|
D |--4-----4-------|--4-----4-------|----------------|--------6-----------------|
A |-----4-----4----|-----4-----4----|--2-----2-------|--------------------------|
E |----------------|----------------|-----2-----2----|--------------------------|



Chorus :

G |-----------------11---------|
D |--------------------11------|
A |-----9--9--9----------------|
E |----------------------------| x4

G |----------------------------|
D |--------------11------------|
A |--9--9--9-----------9-------|
E |----------------------------| x2

Verses 4 :

G |----------------|----------------|----------------|--6-----------6--4--2--1--|
D |--------4-------|--4-----4-------|----------------|--------6-----------------|
A |-4-4-4-----4----|-----4-----4----|--2-----2-------|--------------------------|
E |----------------|----------------|-----2-----2----|--------------------------|   x2


Outro :


G |----------------------------|
D |--------------11------------|
A |--9--9--9-----------9-------|
E |----------------------------| x5

ⓘ Bass guitar tab for 'Clandestino' by Manu Chao, José Manuel Arturo Tomás Chao Ortega, a male reggae artist from Paris, France. Manu Chao was born in 1961. Manu Chao is known for his carefree rock/pop music.

Almost there ...

Sign in to get your own page with links to favourite songs and more. You are just one click away...

Login with Facebook Login with Google