Log in

One click and you are in

Login with Facebook Login with Google

Why sign up and log in

Guitar Tabs Explorer
Marilyn Manson bass tabs for Youre so vain

Bass tabs

Intro;
G|----------------|----------------|----------------|----------------|
D|----------------|----------------|----------------|----------------|
A|----------------|----------------|----------------|----------------|
E|-\5---\5---\5---|-\5---\5---\5---|-\5--\5--\5--\5-|--\5---\5---\5--|
Verse1 (You walked into a party);
G|----------------|----------------|----------------|----------------|
D|----------------|----------------|----------------|-7-7-7-7-7-7-7-7|
A|----------------|----------------|-8-8-8-8-8-8-8-8|----------------|
E|-5-5-5-5-5-5-5-5|-5-5-5-5-5-5-5-5|----------------|----------------| 2x

G|----------------|----------------|----------------|----------------|
D|---------5-5-5-5|---------7-7-7-7|----------------|----------------|
A|-8-8-8-8--------|-7-7-7-7--------|----------------|----------------|
E|----------------|----------------|-1-1-1-1-1-1-1-1|-\8-------------|

G|----------------|----------------|----------------|
D|----------------|----------------|----------------|
A|----------------|----------------|----------------|
E|----------------|-1-1-1-1-1-1-1-1|-1-1-1-1-1-1-1-1|


Chorus1 (You're so vain);
G|----------------|----------------|----------------|----------------|
D|----------------|----------------|----------------|----------------|
A|-3-3-3-3-3-0-3-5|-3-3-3-3-3-2----|----------------|-3-3-3-3-3-3-3-3|
E|----------------|-------------5-3|-1-1-1-1-1-1-1-1|----------------|

G|----------------|----------------|----------------|----------------|
D|----------------|----------------|----------------|----------------|
A|----------------|----------------|----------------|----------------|
E|-5-5-5-5-5-5-5-5|-1-1-1-1-1-1-1-1|--3-3-3---3-3-3-|--3-3-3---3-3-3-|

Bridge;
G|----------------|----------------|----------------|----------------|
D|----------------|----------------|----------------|----------------|
A|----------------|----------------|----------------|----------------|
E|-------3\5------|-3-5-0-3\5------|-3-5-0-3\5------|-3-5-0-3\5------|


Verse2 (You had me several years ago);
G|----------------|----------------|----------------|----------------|
D|----------------|----------------|----------------|----------------|
A|-----5-7-----8-7|-----5-7-----8-7|-8-8-8-8-8-7-5--|-----5-7-----8-7|
E|-5-5-----5-5----|-5-5-----5-5----|---------------8|-5-5-----5-5----|

G|----------------|----------------|----------------|----------------|
D|----------------|----------------|---------------5|-7-7-7-7-7-7-7-7|
A|-----5-7-----8-7|-----5-7-----8-7|-8-8-8-8-8-7-5--|----------------|
E|-5-5-----5-5----|-5-5-----5-5----|----------------|----------------|

G|----------------|----------------|----------------|----------------|
D|---------5-5-5-5|---------7-7-7-7|----------------|----------------|
A|-8-8-8-8--------|-7-7-7-7--------|----------------|----------------|
E|----------------|----------------|-1-1-1-1-1-1-1-1|-\8-------------|

G|----------------|----------------|----------------|----------------|
D|----------------|----------------|----------------|----------------|
A|----------------|----------------|----------------|----------------|
E|-1-1-1-1-3-3-3-3|-0-0-0-0-5-5-5-5|-1-1-1-1-1-1-1-1|-\8-------------|

G|----------------|----------------|----------------|
D|----------------|----------------|----------------|
A|----------------|----------------|----------------|
E|----------------|-1-1-1-1-1-1-1-1|-1-1-1-1-1-1-1-1|


Chorus2; is played as Chorus1


Solo; is played as Verse2


Bridge;
G|----------------|
D|----------------|
A|----------------|
E|-\5-------------| Followed by 3 bars rest


Verse3 (Well I hear you went up to Saratoga); is played as verse1


Chorus3; is played as Chorus1


Chorus4; is played as Chorus1


Outro;
G|----------------|        G|----------------|
D|----------------|        D|----------------|
A|-----5-7-----8-7|        A|-----5-7--------|
E|-5-5-----5-5----| 7x followed by E|-5-5-----5------|

Almost there ...

Sign in to get your own page with links to favourite songs and more. You are just one click away...

Login with Facebook Login with Google