Log in

One click and you are in

Login with Facebook Login with Google

Why sign up and log in

Guitar Tabs Explorer
Marilyn Manson tabs for Wrapped in plastic

Guitar tabs

Album: Portrait of an American Family
As tabbed by Joe Muggah

Bass Verse
G--------------------------------------------------------
D--------------------------------------------------------
A--------------------------------------------------------
E--2---2/5\--2---2/7\--2---------------------------------
Riff 1
e------|-------------------------------------------------
B------|-------------------------------------------------
G------|-------------------------------------------------
D------|-------------------------------------------------
A--9\--|-------------------------7-----------------------
E------|--0h2-2-2--5-2--0-2-0-2----5/---0h2-2-2--5-2-----

(continued)
e--------------------------------------------------------
B--------------------------------------------------------
G--------------------------------------------------------
D--------------------------------------------------------
A----------------------------------------7-9\------------
E--0-2-0-2--5-8---0h2-2-2--5-2--0-2-0-2--------0h2-2-2---

(continued)
e--------------------------------------------------------
B--------------------------------------------------------
G--------------------------------------------------------
D----------------------4---------------------------------
A-------3m-2m-0m-2m-0m-----------------------------------
E--5-2---------------------------------------------------


Riff 2
e--------------------------------------------------------
B--------------------------------------------------------
G--------------------------------------------------------
D--------------------------------------------------------
A-------------------------7------------------------------
E--0h2-2-2--5-2--0-2-0-2----5/---0h2-2-2--5-2--0-2-0-2---

(continued)
e--------------------------------------------------------
B--------------------------------------------------------
G--------------------------------------------------------
D--------------------------------------------------------
A--------------------------------7\-4h5p4----------------
E--5-8---0h2-2-2--5-2--0-2-0-2-------------0h2-2-2--5-2--

(continued)
e--------------------------------------------------------
B--------------------------------------------------------
G--------------------------------------------------------
D------------------4-------------------------------------
A--3m-2m-0m-2m-0m----------------------------------------
E--------------------------------------------------------

Pre-Chorus
e--------------------------------------------------------
B--------------------------------------------------------
G--------------------------------------------------------
D--------------------0-----0---------------------------2-
A----4----4------4-----4-----4-------4---7---5--4h5p4--2-
E--5----5------2---2-----2-----2---5---5---5-----------0-


Chorus
e--------------------------------------------------------
B--------------------------------------------------------
G--------------------------------------------------------
D--2-2-2-2-2--4-4--7-7-7-7-7--2-2-2-2-2--7-7--6-6-6------
A--2-2-2-2-2--4-4--7-7-7-7-7--2-2-2-2-2--7-7--6-6-6------
E--0-0-0-0-0--2-2--5-5-5-5-5--0-0-0-0-0--5-5--4-4-4------


Solo A chord diagramA augmentedA (Guitar 1)
e--------------------------------------------------------
B-------------9-10p9-----------------9-10-------------9--
G--11---9h11----------11-9---------9----------------9----
D--------------------------9--9-11----------9--9-11------
A--------------------------------------------------------
E--------------------------------------------------------

(continued)
e--------------------------------------------------------
B--10----------------------------------------------------
G------------------------9h10h11-------9h10h11--11--9-11-
D-----10---10--------------------------------------------
A--------------12\11--9-----------9-9--------------------
E--------------------------------------------------------

(continued)
e--------------------------------------------------------
B--10^-------------9^------------------------------------
G------11-9---9-11-----11-11-9---------------------------
D------------------------------11------------------------
A---------------------------------9--9-11-12^--11-9--7-9-
E--------------------------------------------------------

(continued)
e--------------------------------------------------------
B--------------------------------------------------------
G--------------------------------------------------------
D--------------------------------------------------------
A--12\11-9--9--12\11--9--9-------------------------------
E--------------------------------------------------------


Solo A chord diagramBB (Guitar 2)
e------12----14-------12----14------------------12h13h14-
B---------14-------------14-----13^--/12-----------------
G----------------------------------------14-11-----------
D--10------------10--------------------------------------
A--------------------------------------------------------
E--------------------------------------------------------

(continued)
e--14h15h17-----------------12----14----------12----14---
B------------14^--14-----------14----------------14------
G------------14^-----14-11----------------11-------------
D--------------------------------------------------------
A-------------------------------------9-9----------------
E--------------------------------------------------------

(continued)
e--------------------------------------------------------
B--------------------------------------------------------
G--------------------------------------------------------
D--------------------------------------------------------
A--10---------9h10h11-------9h10h11----------------------
E------11--9-----------9-9-------------------------------


Riff 3
e--14------12------14------12----------------------------
B------14--------------14--------------------------------
G--------------14----------------------------------------
D--------------------------------------------------------
A--------------------------------------------------------
E--------------------------------------------------------


Bass Verse
Bass Verse, Riff 1
Bass Verse, Riff 2
Bass Verse
Bass Verse, Riff 1
Bass Verse
Bass Verse, Riff 2

Pre-Chorus

Chorus

Solo A, A chord diagramBB

Riff 3

Riff 2

Pre-Chorus

Chorus

Almost there ...

Sign in to get your own page with links to favourite songs and more. You are just one click away...

Login with Facebook Login with Google