Log in

One click and you are in

Login with Facebook Login with Google

Why sign up and log in

Guitar Tabs Explorer
Marilyn Manson tabs for White knuckle

Guitar tabs

Album: Big Black Bus
As tabbed by Joe Muggah


Verse 1
e---------|-----11-14----11-14----11-14----11-14--15-14-11--
B---------|--13-------13-------13-------13------------------
G---------|-------------------------------------------------
D--10---\-|-------------------------------------------------
A--10---\-|-------------------------------------------------
E---8---\-|-------------------------------------------------
Verse 2
e-----------------------------------------------------------
B----------4-4-4----------7-7-7-----------------------------
G--5-(x13)--------5-(x13)-----------------------------------
D-----------------------------------------------------------
A-----------------------------------------------------------
E-----------------------------------------------------------


Verse 3 (palm muted)
e-----------------------------------------------------------
B-----------------------------------------------------------
G---------------------------------8-8-8-8-------------------
D--10-10-10-10--8-8--10-10-10-10--8-8-8-8-------------------
A--10-10-10-10--8-8--10-10-10-10--6-6-6-6-------------------
E---8--8--8--8--6-6---8--8--8--8----------------------------


Bridge
e-------------------------15----------14--------------------
B-------------------------------(x8)--------(x8)------------
G-----12---------11----------12----------11-----------------
D--------(x8)-------(x8)------------------------------------
A--10----------9--------------------------------------------
E-----------------------------------------------------------

(continued)
e-----------------------------------------------------------
B-----------------------------------------------------------
G-------------------------------------11^-------------------
D-----------4---4-4-4-4-4-4-4-4--4-----x--------------------
A-----------4--------------------4-----9^-------------------
E--2-(x15)--2--------------------2--------------------------


Verse 1

Verse 2

Verse 1

Verse 2

Verse 3

Bridge

Verse 1

Almost there ...

Sign in to get your own page with links to favourite songs and more. You are just one click away...

Login with Facebook Login with Google