Log in

One click and you are in

Login with Facebook Login with Google

Why sign up and log in

Guitar Tabs Explorer
Marilyn Manson bass tabs for We are chaos

Bass tabs

Tuning: "B E A D G"


G |----------------|----------------|----------------|----------------|
D |----------------|----------------|----------------|----------------|
A |----------------|----------------|----------------|----------------|
E |----------------|----------------|----------------|----------------|
B |--1--1--1--1----|--1--1--1--1----|--5--5--5--5----|--5--5--5--5----|
----------------|----------------|----------------|----------------|
----------------|----------------|----------------|----------------|
----------------|----------------|----------------|----------------|
----------------|----------------|----------------|----------------|
--3--3--3--3----|--3--3--3--3----|--5--5--5--5----|--5--5--5--5----|


----------------|----------------|----------------|----------------|
----------------|----------------|----------------|----------------|
----------------|----------------|----------------|----------------|
----------------|----------------|----------------|----------------|
--1--1--1--1----|--1--1--1--1----|--5--5--5--5----|--5--5--5--5----|


----------------|----------------|----------------|----------------|
----------------|----------------|----------------|----------------|
----------------|----------------|----------------|----------------|
----------------|----------------|----------------|----------------|
--3--3--3--3----|--3--3--3--3----|--5--5--5--5----|--5--5--5--5----|


----------------|----------------|----------------|----------------|
----------------|----------------|----------------|----------------|
----------------|----------------|----------------|----------------|
--5--5--5--5----|--5--5--3--3----|--1--1--1--1----|--1--1--1--1----|
----------------|----------------|----------------|----------------|

----------------|----------------|----------------|----------------|
----------------|----------------|----------------|----------------|
----------------|----------------|----------------|----------------|
----------------|----------------|--3--3--3--3----|--3--3--3--3----|
--1--1--1--1----|--1--1--1--1----|----------------|----------------|


----------------------------|----------------------------|
----------------------------|----------------------------|
--3--3--3--3--3--3--3--3----|--3--3--3--3--2--2--2--2----|
----------------------------|----------------------------|
----------------------------|----------------------------|


----------------------------|----------------------------|
----------------------------|----------------------------|
----------------------------|----------------------------|
--5--5--5--5--5--5--5--5----|--5--5--5--5--3--3--3--3----|
----------------------------|----------------------------|


----------------------------|----------------------------|
----------------------------|----------------------------|
----------------------------|----------------------------|
----------------------------|--------------0--0--1--1----|
--3--3--3--3--3--3--3--3----|--3--3--3--3----------------|


----------------------------|----------------------------|
----------------------------|----------------------------|
----------------------------|----------------------------|
--3--3--3--3--3--3--3--3----|--3--3--3--3--3--3--3--3----|
----------------------------|----------------------------|


----------------------------|----------------------------|
----------------------------|----------------------------|
--3--3--3--3--3--3--3--3----|--3--3--3--3--2--2--2--2----|
----------------------------|----------------------------|
----------------------------|----------------------------|


----------------------------|----------------------------|
----------------------------|----------------------------|
----------------------------|----------------------------|
--5--5--5--5--5--5--5--5----|--5--5--5--5--3--3--3--3----|
----------------------------|----------------------------|


----------------------------|----------------------------|
----------------------------|----------------------------|
----------------------------|----------------------------|
----------------------------|--------------0--0--1--1----|
--3--3--3--3--3--3--3--3----|--3--3--3--3----------------|


----------------------------|----------------------------|----------------|
----------------------------|----------------------------|----------------|
----------------------------|----------------------------|----------------|
--3--3--3--3--3--3--3--3----|--3--3--3--3--3--3--3--3----|----------------|
----------------------------|----------------------------|--1--1--1--1----|


----------------|----------------|----------------|----------------|
----------------|----------------|----------------|----------------|
----------------|----------------|----------------|----------------|
----------------|----------------|----------------|----------------|
--1--1--1--1----|--5--5--5--5----|--5--5--5--5----|--3--3--3--3----|


----------------|----------------|----------------|----------------|
----------------|----------------|----------------|----------------|
----------------|----------------|----------------|----------------|
----------------|----------------|----------------|--5--5--5--5----|
--3--3--3--3----|--5--5--5--5----|--5--5--5--5----|----------------|


----------------|----------------|----------------|----------------|
----------------|----------------|----------------|----------------|
----------------|----------------|----------------|----------------|
--5--5--3--3----|--1--1--1--1----|--1--1--1--1----|----------------|
----------------|----------------|----------------|--1--1--1--1----|


----------------|----------------|----------------|----------------------------|
----------------|----------------|----------------|----------------------------|
----------------|----------------|----------------|--3--3--3--3--3--3--3--3----|
----------------|--3--3--3--3----|--3--3--3--3----|----------------------------|
--1--1--1--1----|----------------|----------------|----------------------------|


----------------------------|----------------------------|
----------------------------|----------------------------|
--3--3--3--3--2--2--2--2----|----------------------------|
----------------------------|--5--5--5--5--5--5--5--5----|
----------------------------|----------------------------|


----------------------------|----------------------------|
----------------------------|----------------------------|
----------------------------|----------------------------|
--5--5--5--5--3--3--3--3----|----------------------------|
----------------------------|--3--3--3--3--3--3--3--3----|


----------------------------|----------------------------|
----------------------------|----------------------------|
----------------------------|----------------------------|
--------------0--0--1--1----|--3--3--3--3--3--3--3--3----|
--3--3--3--3----------------|----------------------------|


----------------------------|----------------------------|
----------------------------|----------------------------|
----------------------------|--3--3--3--3--3--3--3--3----|
--3--3--3--3--3--3--3--3----|----------------------------|
----------------------------|----------------------------|


----------------------------|----------------------------|
----------------------------|----------------------------|
--3--3--3--3--2--2--2--2----|----------------------------|
----------------------------|--5--5--5--5--5--5--5--5----|
----------------------------|----------------------------|


----------------------------|----------------------------|
----------------------------|----------------------------|
----------------------------|----------------------------|
--5--5--5--5--3--3--3--3----|----------------------------|
----------------------------|--3--3--3--3--3--3--3--3----|


----------------------------|----------------------------|
----------------------------|----------------------------|
----------------------------|----------------------------|
--------------0--0--1--1----|--3--3--3--3--3--3--3--3----|
--3--3--3--3----------------|----------------------------|


----------------------------|----------------|----------------|----------------|
----------------------------|----------------|----------------|----------------|
----------------------------|--2--2--2--2----|--2--2--2--2----|--3--3--3--3----|
--3--3--3--3--3--3--3--3----|----------------|----------------|----------------|
----------------------------|----------------|----------------|----------------|


----------------|----------------|----------------|----------------|
----------------|----------------|----------------|----------------|
--3--3--3--3----|--2--2--2--2----|--2--2--2--2----|--3--3--3--3----|
----------------|----------------|----------------|----------------|
----------------|----------------|----------------|----------------|


----------------|----------------|----------------|----------------|
----------------|----------------|----------------|----------------|
--3--3--3--3----|--2--2--2--2----|--2--2--2--2----|----------------|
----------------|----------------|----------------|--5--5--5--5----|
----------------|----------------|----------------|----------------|


----------------|----------------|----------------------------|
----------------|----------------|----------------------------|
----------------|----------------|----------------------------|
--5--5--5--5----|--3--3--3--3----|--3--3--3--3--3--3--3--3----|
----------------|----------------|----------------------------|


----------------------------|----------------------------|
----------------------------|----------------------------|
--3--3--3--3--3--3--3--3----|--3--3--3--3--2--2--2--2----|
----------------------------|----------------------------|
----------------------------|----------------------------|


----------------------------|----------------------------|
----------------------------|----------------------------|
----------------------------|----------------------------|
--5--5--5--5--5--5--5--5----|--5--5--5--5--3--3--3--3----|
----------------------------|----------------------------|


----------------------------|----------------------------|
----------------------------|----------------------------|
----------------------------|----------------------------|
----------------------------|--------------0--0--1--1----|
--3--3--3--3--3--3--3--3----|--3--3--3--3----------------|


----------------------------|----------------------------|
----------------------------|----------------------------|
----------------------------|----------------------------|
--3--3--3--3--3--3--3--3----|--3--3--3--3--3--3--3--3----|
----------------------------|----------------------------|


----------------------------|----------------------------|
----------------------------|----------------------------|
--3--3--3--3--3--3--3--3----|--3--3--3--3--2--2--2--2----|
----------------------------|----------------------------|
----------------------------|----------------------------|


----------------------------|----------------------------|
----------------------------|----------------------------|
----------------------------|----------------------------|
--5--5--5--5--5--5--5--5----|--5--5--5--5--3--3--3--3----|
----------------------------|----------------------------|


----------------------------|----------------------------|
----------------------------|----------------------------|
----------------------------|----------------------------|
----------------------------|--------------0--0--1--1----|
--3--3--3--3--3--3--3--3----|--3--3--3--3----------------|


----------------------------|----------------------------|
----------------------------|----------------------------|
----------------------------|----------------------------|
--3--3--3--3--3--3--3--3----|--3--3--3--3--3--3--3--3----|
----------------------------|----------------------------|


----------------------------|----------------------------|
----------------------------|----------------------------|
--3--3--3--3--3--3--3--3----|--3--3--3--3--2--2--2--2----|
----------------------------|----------------------------|
----------------------------|----------------------------|


----------------------------|----------------------------|
----------------------------|----------------------------|
----------------------------|----------------------------|
--5--5--5--5--5--5--5--5----|--5--5--5--5--3--3--3--3----|
----------------------------|----------------------------|


----------------------------|----------------------------|
----------------------------|----------------------------|
----------------------------|----------------------------|
----------------------------|--------------0--0--1--1----|
--3--3--3--3--3--3--3--3----|--3--3--3--3----------------|


----------------------------|----------------------------|-------|-------|
----------------------------|----------------------------|-------|-------|
----------------------------|----------------------------|--3----|-------|
--3--3--3--3--3--3--3--3----|--3--3--3--3--3--3--3--3----|-------|--5----|
----------------------------|----------------------------|-------|-------|


-------|-------|-------|-------|-------|-------||
-------|-------|-------|-------|-------|-------||
-------|-------|--3----|-------|-------|-------||
-------|--3----|-------|--5----|-------|--3----||
--3----|-------|-------|-------|--3----|-------||

Almost there ...

Sign in to get your own page with links to favourite songs and more. You are just one click away...

Login with Facebook Login with Google