Log in

One click and you are in

Login with Facebook Login with Google

Why sign up and log in

Guitar Tabs Explorer
Marilyn Manson tabs for Valentines day

Guitar tabs

Album: Holy Wood
As tabbed by Joe Muggah


Verse A chord diagramA augmentedA (Guitar 1) (Three times then: )
e------------------|----------------------------------
B-----6---4---3-4--|-----6---4---3--------------------
G---5---5---5------|---5---5---5---5------------------
D-3----------------|-3--------------------------------
A------------------|----------------------------------
E------------------|----------------------------------
("She was the color of TV...")
Verse A chord diagramBB (Guitar 2)
e-----------------------------------------------------
B-----------------------------------------------------
G-----------------------------------------------------
D-----------------3-3-3-3-3-3-3-3---------------------
A-0-0-0-0-0-0-0-0-4-4-4-4-4-4-4-4---------------------
E-1-1-1-1-1-1-1-1-------------------------------------


Pre-Chorus (all hit 8 times)
e-----------------------------------------------------
B-----------------------------------------------------
G--5---7---8---13-------------------------------------
D--x---x---x----x-------------------------------------
A--3---5---6---11-------------------------------------
E-----------------------------------------------------
("Flies are waiting...")


Chorus A chord diagramA augmentedA (Guitar 1)
e-----------------------------------------------------
B-----------------------------------------------------
G-----------------------------------------------------
D-3--6--5-3----6-5-3--x-x---3--6--5-3-----6-5-3--x-x--
A-3--6--5-3----6-5-3--x-x---3--6--5-3-----6-5-3--x-x--
E-1--4--3-1----4-3-1--x-x---1--4--3-1-----4-3-1--x-x--
("In the shadow...")

Chorus A chord diagramA augmentedA (continued)
e-----------------------------------------------------
B-----------------------------------------------------
G-3----6---------3----6-------------------------------
D-3----6----3----3----6-------------------------------
A-1----4----3----1----4-------------------------------
E-----------1-----------------------------------------


Chorus A chord diagramBB (Synthasizer arranged for Guitar 2)
e---4-1-3-4---4-1-3----4-1-3-4---4-1-3----------------
B-----------------------------------------------------
G-----------------------------------------------------
D-----------------------------------------------------
A-----------------------------------------------------
E-----------------------------------------------------


Chorus A chord diagramBB (continued)
e---1-1---3-4---4-1-3-4---1-1---3-4-------------------
B-----------------------------------------------------
G-----------------------------------------------------
D-----------------------------------------------------
A-----------------------------------------------------
E-----------------------------------------------------


Chorus A chord diagramC majorC (Guitar 2 or 3)
e-19^\----23^----22\----19^\----23^----22\------------
B-----------------------------------------------------
G-----------------------------------------------------
D-----------------------------------------------------
A-----------------------------------------------------
E-----------------------------------------------------


Verse A, A chord diagramBB

Pre-Chorus

Chorus A, A chord diagramBB

Verse A, A chord diagramBB

Pre-Chorus

Chorus A, A chord diagramBB

Chorus A, B, A chord diagramC majorC

There. I have officially tabbed this whole album. All
I ask in return is sleep.

Almost there ...

Sign in to get your own page with links to favourite songs and more. You are just one click away...

Login with Facebook Login with Google