Log in

One click and you are in

Login with Facebook Login with Google

Why sign up and log in

Guitar Tabs Explorer
Marilyn Manson tabs for Use your fist and not your mouth

Use Your Fist And Not Your Mouth tab by Marilyn Manson

Marilyn Manson tabs for Use your fist and not your mouth

Guitar tabs

Album: The Golden Age of Grotesque (2003)
As tabbed by Joe Muggah

Dropped A chord diagramD MajorD

Intro
e------------------------------------------------------------
B------------------------------------------------------------
G-----------10^------------7^------------10^-------7^--------
D--2-2-2-2--10^---2-2-2-2--7^---2-2-2-2--10^---2-2-7^-2-2-2--
A--2-2-2-2---8^---2-2-2-2--5^---2-2-2-2---8^---2-2-5^-2-2-2--
D--2-2-2-2--------2-2-2-2-------2-2-2-2--------2-2----2-2-2--


Chorus
e------------------------------------------------------------
B------------------------------------------------------------
G-----------10^------------7^------------10^-------7^-----7^-
D--2-2-2-2--10^---2-2-2-2--7^---2-2-2-2--10^---2-2-7^-2-2-7^-
A--2-2-2-2---8^---2-2-2-2--5^---2-2-2-2---8^---2-2-5^-2-2-5^-
D--2-2-2-2--------2-2-2-2-------2-2-2-2--------2-2----2-2----


Verse 1 (muted with effect)
e------------------------------------------------------------
B------------------------------------------------------------
G------------------------------------------------------------
D------------------------------------------------------------
A------------------------------------------------------------
D--2-2-2-2-2-2-2-2-2-2-2-2--3-3-3-3--2-2-2-2-2-2-2-2-2-2-2-2-

(continued)
e------------------------------------------------------------
B------------------------------------------------------------
G------------------------------------------------------------
D------------------------------------------------------------
A------------------------------------------------------------
D--0-0-0-0---------------------------------------------------


Verse 2
e------------------------------------------------------------
B------------------------------------------------------------
G------------------------------------------------------------
D--2--------3---2---------0---2--------3---2-----2-----------
A--2--------3---2---------0---2--------3---2-----2-----------
D--2--------3---2---------0---2--------3---2-----2-----------


Bridge
e------------------------------------------------------------
B------------------------------------------------------------
G------------------------------------------------------------
D--2-2----2-2----10-10----10-10----7-7----7-7----7-7----7-7--
A--2-2----2-2----10-10----10-10----7-7----7-7----7-7----7-7--
D--2-2----2-2----10-10----10-10----7-7----7-7----7-7----7-7--


Riff
e------------------------------------------------------------
B------------------------------------------------------------
G------------------------------------------------------------
D------------------------------------------------------------
A--7---10-9---8^----7---10-9---8^---7---10-9---8^------------
D------------------------------------------------------------


Intro

Chorus

Verse 1

Chorus

Verse 2

Chorus

Bridge

Verse 1

Verse 2

Chorus

Chorus, Riff

Bridge



_________________________________________________________________

Almost there ...

Sign in to get your own page with links to favourite songs and more. You are just one click away...

Login with Facebook Login with Google