Log in

One click and you are in

Login with Facebook Login with Google

Why sign up and log in

Guitar Tabs Explorer
Marilyn Manson bass tabs for Third day of a seven day binge

Third Day Of A Seven Day Binge bass tab by Marilyn Manson

Marilyn Manson bass tabs for Third day of a seven day binge

Bass tabs

Intro:

G|--------------------------------|
D|--------------------------------|
A|--------------------------------|
E|0 -00 -00 -00 --0 -00 -00 -00333|

G|--------------------------------|
D|--------------------------------|
A|----------------------------3333|
E|0 -00 -00 -00 --0 -00 -00 -0----|

G|--------------------------------|
D|--------------------------------|
A|------------3333------------5555|
E|0 -00 -00 -0----0 -00 -00 -0----|

G|--------------------------------|
D|--------------------------------|
A|3 -33 -30 -00---------------3333|
E|----------------0 -00 -00 -0----|

Rest of the song

G|--------------------------------|
D|--------------------------------|
A|------------3333------------5555|
E|0 -00 -00 -0----0 -00 -00 -0----|

G|--------------------------------|
D|--------------------------------|
A|3 -33 -30 -00---------------3333|
E|----------------0 -00 -00 -0----|

G|--------------------------------|
D|--------------------------------|
A|------------3333------------5555|
E|0 -00 -00 -0----0 -00 -00 -0----|

G|--------------------------------|
D|--------------------------------|
A|3 -33 -30 -00---------------3333|
E|----------------0 -00 -00 -0----|

G|--------------------------------|
D|--------------------------------|
A|------------3333------------5555|
E|0 -00 -00 -0----0 -00 -00 -0----|

G|--------------------------------|
D|--------------------------------|
A|3 -33 -30 -00---------------3333|
E|----------------0 -00 -00 -0----|

G|--------------------------------|
D|--------------------------------|
A|------------3333------------5555|
E|0 -00 -00 -0----0 -00 -00 -0----|

G|--------------------------------|
D|--------------------------------|
A|3 -33 -30 -00---------------3333|
E|----------------0 -00 -00 -0----|

G|--------------------------------|
D|--------------------------------|
A|------------3333------------5555|
E|0 -00 -00 -0----0 -00 -00 -0----|

G|--------------------------------|
D|--------------------------------|
A|3 -33 -30 -00---------------3333|
E|----------------0 -00 -00 -0----|

G|--------------------------------|
D|--------------------------------|
A|------------3333------------5555|
E|0 -00 -00 -0----0 -00 -00 -0----|

G|--------------------------------|
D|--------------------------------|
A|3 -33 -30 -00---------------3333|
E|----------------0 -00 -00 -0----|

Break

G|--------------------------------|
D|--------------------------------|
A|------------3333------------5555|
E|0 -00 -00 -0----0 -00 -00 -0----|

G|--------------------------------|
D|--------------------------------|
A|3 -33 -30 -00---------------3333|
E|----------------0 -00 -00 -0----|

G|--------------------------------|
D|--------------------------------|
A|------------3333------------5555|
E|0 -00 -00 -0----0 -00 -00 -0----|

G|--------------------------------|
D|--------------------------------|
A|3 -33 -30 -00---------------3333|
E|----------------0 -00 -00 -0----|

G|--------------------------------|
D|--------------------------------|
A|------------3333------------5555|
E|0 -00 -00 -0----0 -00 -00 -0----|

G|--------------------------------|
D|--------------------------------|
A|3 -33 -30 -00---------------3333|
E|----------------0 -00 -00 -0----|

G|--------------------------------|
D|--------------------------------|
A|------------3333------------5555|
E|0 -00 -00 -0----0 -00 -00 -0----|

G|--------------------------------|
D|--------------------------------|
A|3 -33 -30 -00---------------3333|
E|----------------0 -00 -00 -0----|

G|--------------------------------|
D|--------------------------------|
A|--------------------------------|
E|0-------------------------------|

Almost there ...

Sign in to get your own page with links to favourite songs and more. You are just one click away...

Login with Facebook Login with Google