Log in

One click and you are in

Login with Facebook Login with Google

Why sign up and log in

Guitar Tabs Explorer
Marilyn Manson bass tabs for The speed of pain

The Speed Of Pain bass tab by Marilyn Manson

Marilyn Manson bass tabs for The speed of pain

Bass tabs

Track 6 from Mechanical Animals - The Speed of Pain


Tuning - Standard
Intro - No Bass

Verse - No Bass

            Prechorus
G |-----------------|---------------------------------|
D |-----------------|---------------------------------| X2
A |-----------------|------------------------12---14--|
E |--5~~~-----------|--5----0-0----0-0-0-14-----------|

G |------------------------------|----------------------|--------|
D |------------------------------|----------------------|--------|
A |------------------------------|----------------------|--------|
E |--5~~~-------8~~~-------5~~~--|--3~~~-------2-----3--|--0~~~--|


Chorus - No Bass

Verse II - No Bass

Repeat Prechorus

             Chorus II
G |------------------------------------|------------------------------------|
D |------------------------------------|------------------------------------| X2
A |---------------------------12---14--|---------------------------12---14--|
E |--0---0---0--0------0---0-----------|--0---8---8--8------8---8-----------|

                Bridge
G |----------------------------------------------------------------------------|
D |----------------------------------------------------------------------------|
A |----------------------------------------------------------------------------|
E |--3~~~-------11~~~-------8~~~-------10~~~-------4~~~-------2~~~-------1~~~--|

G |------------------------------|
D |------------------------------|
A |--8--10--8------8--10--8------|
E |------------10------------10--|

G |----------------------------------------------------------------------------|
D |----------------------------------------------------------------------------|
A |----------------------------------------------------------------------------|
E |--3~~~-------11~~~-------8~~~-------10~~~-------4~~~-------2~~~-------1~~~--|

G |------------------------------|
D |------------------------------|
A |--8--10--8------8--10--8------|
E |------------10------------10--|


Outro - No Bass

Almost there ...

Sign in to get your own page with links to favourite songs and more. You are just one click away...

Login with Facebook Login with Google