Log in

One click and you are in

Login with Facebook Login with Google

Why sign up and log in

Guitar Tabs Explorer
Marilyn Manson tabs for The nobodies

Guitar tabs

Album: Holy Wood
As tabbed by Joe Muggah


Verse
e--------------------------------------------------
B---1---1---1---1----1---1---1---1-----------------
G-----2---2---2--------2---2---2-------------------
D--------------------------------------------------
A-0----------------3-------------------------------
E--------------------------------------------------
("Today I am dirty...")
Verse (continued)
e--------------------------------------------------
B---1-----1--------1---1-----1---1-----------------
G-----2-----2--------2---------2-------------------
D-2-----2-----2------------------------------------
A----------------0---------------------------------
E--------------------------3-----------------------


Chorus A chord diagramA augmentedA (Guitar 1)
e--------------------------------------------------
B--------------------------------------------------
G-2-------5---------------2------------------------
D-2-(x8)--5-(x8)--2-(x8)--2-(x4)--5-(x4)-----------
A-0-------3-------2-------0-------5----------------
E-----------------0---------------3----------------
("We are the nobodies...")


Chorus A chord diagramBB (Guitar 2)
e-8---8---8---8---8---8----8-0-7^-------8--------10---
B--10--10--10--10--10--10---------10-10--10--8-8----8-
G-----------------------------------------------------
D-----------------------------------------------------
A-----------------------------------------------------
E-----------------------------------------------------

Post-Chorus                          end on
e---------------------------------|----------------
B---------------------------------|----------------
G-2---------------2---------------|----------------
D-2-(x8)--3-(x8)--2-(x8)--3-(x8)--|--2-2-2---------
A-0-------3-------0-------3-------|--2-2-2---------
E---------1---------------1-------|--0-0-0---------
("Some children died...")

Fill
e--------------------------------------------------
B--------------------------------------------------
G---------2----------------------------------------
D-2-(x8)--2-(x4)--5-(x4)---------------------------
A-2-------0-------5--------------------------------
E-0---------------3--------------------------------

Chorus A chord diagramC majorC (Guitar 2)
e----8-7-8-----8-7-8-----8-7-8-----8-7-8-----------
B-10--------10--------10--------10-----------------
G--------------------------------------------------
D--------------------------------------------------
A--------------------------------------------------
E--------------------------------------------------


Chorus A chord diagramC majorC (continued)
e---7-8-7----7-8-7-----8-7-8----7-8-7--------------
B-5--------5--------10--------8--------------------
G--------------------------------------------------
D--------------------------------------------------
A--------------------------------------------------
E--------------------------------------------------


Verse

Chorus A chord diagramA augmentedA
Chours A, A chord diagramBB

Verse

Chorus A, A chord diagramC majorC
Post-Chorus

Verse (Guitar 1 and 2)
Fill (Guitar 2 plays the last half of Chorus A chord diagramBB)

Chorus A, A chord diagramC majorC

Other versions of The Nobodies

The nobodies acousticTabs

Almost there ...

Sign in to get your own page with links to favourite songs and more. You are just one click away...

Login with Facebook Login with Google