Log in

One click and you are in

Login with Facebook Login with Google

Why sign up and log in

Guitar Tabs Explorer
Marilyn Manson tabs for The last day on earth

Guitar tabs

Album: Mechanical Animals
As tabbed by Joe Muggah

Guitar 1 is in dropped D
Guitar 2 is in standard
Chorus A chord diagramA augmentedA (Guitar 2)
e---7---9---10-9------7---9-10--------------------------
B-7---7---7------7--7---7------7------------------------
G-------------------------------------------------------
D-------------------------------------------------------
A-------------------------------------------------------
E-------------------------------------------------------


Chorus A chord diagramBB (Synthasizer for Guitar 1)
e-7----5----0----7----5----0----7----5----0-------------
B---------------------------------------------3---1---0-
G-------------------------------------------------------
D-------------------------------------------------------
A-------------------------------------------------------
D-------------------------------------------------------


Verse (Synthasizer for Guitar 1)
e-------------------------------------------------------
B-------------------------------------------------------
G-------------------------------------------------------
D---7---7---7---7---5---5---5---5---3---3---3-----5---5-
A-------------------------------------------------------
D-7---7---7---7---5---5---5---5---3---3---3---3-5---5---

(continued)
e-------------------------------------------------------
B-------------------------------------------------------
G----------------------------------------|     x2     |-
D--5---5---7---7---7---7---5---5---5-----0---0---0---0--
A-------------------------------------------------------
D-5--5---7---7---7---7---5---5---5---5-0---0---0---0----

Verse A chord diagramBB (Guitar 2, strumming)
e-0-----3-----1-----0-----3-----0-----------------------
B-1-----3-----1-----1-----3-----3-----------------------
G-2-----4-----2-----2-----4-----2-----------------------
D-2-----5-----3-----2-----5-----0-----------------------
A-0-----5-----3-----0-----5-----------------------------
E-------3-----1-----------3-----------------------------


Chorus A chord diagramC majorC (Synthasizer for Guitar 1)
e-------------------------------------------------------
B-------------------------------------------------------
G-4---2-------4---2-------4---2-------7---5---4---------
D-4---2---2---4---2---2---4---2---2---7---5---4---------
A-2---0---2---2---0---2---2---0---2---5---3---2---------
D---------2-----------2-----------2---------------------
("I know it's the last day on Earth...")


Riff
e----------10---8--7-8----------------------------------
B---12---------------------12------10-------------------
G-9----12----------------9----12-------9----------------
D-------------------------------------------------------
A-------------------------------------------------------
D-------------------------------------------------------


Outro
e-----------------10--9--------------------------10-9---
B-9^-9^-9^-10--10-------10-12---9^-9^-9^-10--10---------
G-----------------------------------------------------9-
D-------------------------------------------------------
A-------------------------------------------------------
E-------------------------------------------------------

(continued)
e-----------------10--9--------10^--\9--\7--10^--\9--\7-
B-9^-9^-9^-10--10-------10-12---------------------------
G-------------------------------------------------------
D-------------------------------------------------------
A-------------------------------------------------------
E-------------------------------------------------------


Chorus A chord diagramA augmentedA

Chorus A, A chord diagramBB

Verse A chord diagramA augmentedA

Verse A, A chord diagramBB

Chorus A, B, A chord diagramC majorC

Verse A, Riff

Verse A chord diagramA augmentedA

Chorus A, B, A chord diagramC majorC

Verse B, Riff

Verse A, B, Riff

Chorus A, B, A chord diagramC majorC

Chorus A, B, C, Outro

Other versions of The Last Day On Earth

The Last Day on Earth LiveTabs

Almost there ...

Sign in to get your own page with links to favourite songs and more. You are just one click away...

Login with Facebook Login with Google