Log in

One click and you are in

Login with Facebook Login with Google

Why sign up and log in

Guitar Tabs Explorer
Marilyn Manson tabs for The last day on earth live

The Last Day On Earth Live tab by Marilyn Manson

Marilyn Manson tabs for The last day on earth live

Guitar tabs with lyrics

Album: The Last Tour on Earth
  Tabbed by Andy Morrison


  Here I have tabbed the acoustic version of Last Day
  on Earth, off the live album, rather than the
  synthesized version off Mechanical Animals.
  🏷Legend

  * Appreggiate Chord


  Intro Riff

E---0-2---9-----9-----0-2---9- |
B-----------7-----7----------- |
G-------0-----0-----0-----0--- |
D----------------------------- |

Below I have listed out the chords in order, as they appear in
the song. Listen to the track for the strumming patterns.
Easy enough.


Chorus/Pre-Verse
           x3             x1
E---2---3---0- | -2---0---2- |
B---4---3---0- | -3---1---4- |
G---4---0---0- | -2---0---4- |
D---4---0---2- | -0---2---4- |
A---2---2---2- | -----3---2- |
E---2---3---0- | ---------2- |
    A chord diagramBB   A chord diagramG+G   A chord diagramE minorEm    A chord diagramD MajorD   A chord diagramC majorC   A chord diagramBB


Verse/Bridge 1

E---0---3---0---3---0---3---0---- |
B---1---3---1---3---1---3---1---- |
G---2---0---0---0---2---0---2---- |
D---2---0---2---0---2---0---0---- |
A---0---2---3---2---0---2---0---- |
E-------3-------3-------3---2---- |
    A chord diagramA minorAm  A chord diagramG+G   A chord diagramC majorC   A chord diagramG+G   A chord diagramA minorAm  A chord diagramG+G   D9/F#


Bridge (Piano)

E-----------10-8----8-------------- |
B-----12---------12-----12----10--- |
G---9----12-----------9----12----9- |
D---------------------------------- |


Outro

E---2---0---2---2*--0*--2*- |
B---3---1---2---3*--1*--2*- |
G---2---0---4---2*--0*--4*- |
D---0---2---4---0*--2*--4*- |
A-------3---4-------3*--4*- |
E-----------2-----------2*- |


Song Structure

| Intro Riff | Pre-Verse | Verse x4 | Chorus |     Bridge 1     |
                                             | Bridge 2 (Piano) |

------------------------------------------------------------------

| Verse x3 | Chorus |    Bridge 1      x2 | Chorus x 2 | Outro |
                    | Bridge 2 (Piano) x2 |

Almost there ...

Sign in to get your own page with links to favourite songs and more. You are just one click away...

Login with Facebook Login with Google