Log in

One click and you are in

Login with Facebook Login with Google

Why sign up and log in

Guitar Tabs Explorer
Marilyn Manson tabs for The golden age of grotesque

The Golden Age Of Grotesque tab by Marilyn Manson

Marilyn Manson tabs for The golden age of grotesque

Guitar tabs

Album: The Golden Age of Grotesque (2003)
As tabbed by Joe Muggah


Verse
e--------------0--------------------------0-----------------
B--------1-------1------------------0-------0---------------
G----------0--------------------------0---------------------
D----2------------------------------------------------------
A--3------------------3-5-6----7-----------------7-6-5------
E---------------------------0-------------------------------

Pre-Chorus
e--------------0--------------------------0-----------------
B--------1-------1------------------0-------0---------------
G----------0--------------------------0---------------------
D----2------------------------------------------------------
A--3------------------3-5-6----7-----------------7-6-5------
E---------------------------0-------------------------------

(continued)
e-----------------------------------------------------------
B--------1-------------0----------0-------------------------
G----------0------------------------------------------------
D----2--------------2------2---2----------------------------
A--3---3-----3---2---------2--------------------------------
E--------------------------0--------------------------------


Chorus
e----------------------------------------0------------------
B-----------------------------------1-----------------------
G--------------0--------------------------------------------
D--2-----2------------5-4-2--------------------5-4-2--------
A--2--------------------------3---3----3----3---------------
E--0---0-----0-----0----------------------------------------

(continued)
e--------------------------------------0--------------------
B---------------------------------1-------------------------
G-------------0---------------------------------------------
D--------2----------5-4-2--------------------5-4-2----------
A--2---2----2----2----------3---3----3----3-----------------
E-----------------------------------------------------------

(continued)
e----------------------------------------0------------------
B-----------------------------------1-----------------------
G--------------0--------------------------------------------
D--2-----2------------5-4-2--------------------5-4-2--------
A--2--------------------------3---3----3----3---------------
E--0---0-----0-----0----------------------------------------

(continued)
e-----------------------------------------------------------
B------------0-------------------1--------------------------
G---------0------------------------2-----------0------------
D----2-------------5-4-2------2------2-------0---0-----2----
A--2----2-------2----------0---------------2-------2---2----
E----------------------------------------3-------------0----


Bridge
e-----------------------------------------------------------
B-----------------------------------------------------------
G-----------------------------------------------------------
D--5---4---7-----------4------5---4---7---------------------
A-----------------7-------------------------7---------------
E-----------------------------------------------------------


Verse

Pre-Chorus

Chorus

Verse

Pre-Chorus

Chorus

Bridge

Verse

Pre-Chorus

Chorus

_________________________________________________________________

Almost there ...

Sign in to get your own page with links to favourite songs and more. You are just one click away...

Login with Facebook Login with Google