GuitarTabsExplorer icon
GuitarTabsExplorer icon

Log in

Songbook

  • Log in to add and see bookmarks

Last visited songs

  • No songs visited yet...
The Bright Young Things by Marilyn Manson

The Bright Young Things tab by Marilyn Manson

Tabs

Song: The Bright Young Things
Artist: Marilyn Manson
Album: The Golden Age of Grotesque (2003)
As tabbed by Joe Muggah

Dropped Chord diagramD MajorD tuning


Intro
e-----------------------------------------------------------
B-----------------------------------------------------------
G-----------------------------------------------------------
D--0-3--0-0--0-3--0-0--6^---0-3--0-0--0-3--0-0--------------
A--0-3--0-0--0-3--0-0--6^---0-3--0-0--0-3--0-0-----
D--0-3--0-0--0-3--0-0--6^---0-3--0-0--0-3--0-0--------------
Verse
e-----------------------------------------------------------
B-----------------------------------------------------------
G-----------------------------------------------------------
D--3-0-0--3-0-0--3-0-0--3-0-0--3-0-0---3-0-0--3-0-0--3-0-0--
A-----------------------------------------------------------
D-----------------------------------------------------------

(continued)
e-----------------------------------------------------------
B-----------------------------------------------------------
G-----------------------------------------------------------
D--3-0-0--3-0-0--6-0-0--------------------------------------
A-----------------------------------------------------------
D-----------------------------------------------------------


Pre-Chorus
e-----------------------------------------------------------
B-----------------------------------------------------------
G-----------------------------------------------------------
D--0-3--3-0-----0-3--3-0--------------------0-3--3-0----6---
A--0-3--3-0-----0-3--3-0--------0-3--3-0----6---
D--0-3--3-0-----0-3--3-0--------------------0-3--3-0----6---

(continued)
e-----------------------------------------------------------
B-----------------------------------------------------------
G-----------------------------------------------------------
D--0-3--3-0---0-3--3-0--------------------------------------
A--0-3--3-0---0-3--3-0--------------------------
D--0-3--3-0---0-3--3-0--------------------------------------
Chorus
e-----------------------------------------------------------
B-----------------------------------------------------------
G-----------------------------------------------------------
D--0-0-0-0--3-3-3---10---10-10---0-3--0-6-------------------
A--0-0-0-0--3-3-3---10---10-10---0-3--0-6-------------------
D--0-0-0-0--3-3-3---10---10-10---0-3--0-6-------------------

(end on:)
e-----------------------------------------------------------
B-----------------------------------------------------------
G-----------------------------------------------------------
D--0-0-0-0--3-3-3---10---10-10---0-3--0-6------0-3--0-6-----
A--0-0-0-0--3-3-3---10---10-10---0-3--0-6------0-3--0-6-----
D--0-0-0-0--3-3-3---10---10-10---0-3--0-6------0-3--0-6-----


Riff 1
e---------16^-----------16^-----------16^-----------16^-----
B-----------------------------------------------------------
G--13^-----------13^-----------13^-----------13^------------
D-----------------------------------------------------------
A-----------------------------------------------------------
D-----------------------------------------------------------


Bridge
e-----------------------------------------------------------
B-----------------------------------------------------------
G-----------------------------------------------------------
D--5-----------5-----------5------------0-3--0-6------------
A--5-----------5-----------5------------0-3--0-6------------
D--5-----------5-----------5------------0-3--0-6------------


Riff 2
e-----------------------------------------------------------
B-----------------------------------------------------------
G------------------------------13^--------------------------
D-----------------------------------------------------------
A-----------------------------------------------------------
D--12--12--12--12--12--12--12-------------12--12--12--12----

(continued)
e-----------------------------------------------------------
B-----------------------------------------------------------
G--------------13^-------------------------------------13^--
D-----------------------------------------------------------
A-----------------------------------------------------------
D--12--12--12--------------12--12--12--12--12--12--12-------

(continued)
e-----------------------------------------------------------
B-----------------------------------------------------------
G------------------------------10^--------------------------
D-----------------------------------------------------------
A-----------------------------------------------------------
D--12--12--12--12--12--12--12-------------------------------


Outro
e-----------------------------------------------------------
B-----------------------------------------------------------
G-----------------------------------------------------------
D--0-3--3-0-----0-3--3-0--------------------0-3--3-0----6---
A--0-3--3-0-----0-3--3-0--------0-3--3-0----6---
D--0-3--3-0-----0-3--3-0--------------------0-3--3-0----6---

(continued)
e-----------------------------------------------------------
B-----------------------------------------------------------
G-----------------------------------------------------------
D---0-3--3-0------------------------------------------------
A---0-3--3-0------------------------------------------------
D---0-3--3-0------------------------------------------------


Intro
Verse
Pre-Chorus
Chorus
Verse
Pre-Chorus
Chorus
Pre-Chorus, Riff 1
Bridge
Chorus
Chorus, Riff 2
Pre-Chorus
Outro



_________________________________________________________________

[ Privacy | About us ]

Welcome to the guitar community

Why join and log in?
- Get songbook with favourite songs
- Get custom made front page
- Submit chords and tabs
- Submit guitar-cover videos
- Get a lot of thumbs up for your work

Songbook

Last visited songs

Site
Home
Search
Community
Submit chords

Video

No video for this page. Check out how you can submit guitar-cover videos here

Search tabs and chords

Browse by artist

A B C D E F G H I J K L M N O P Q R S T U V W X Y Z #


Menu

Search

Video

Bookmark

Login