Log in

One click and you are in

Login with Facebook Login with Google

Why sign up and log in

Guitar Tabs Explorer
Marilyn Manson tabs for The beautiful people

Guitar tabs

Album: Antichrist Superstar
As tabbed by Joe Muggah

Dropped A chord diagramD MajorD

(): harmonics
Intro
e-------------------------------------------------------
B-------------------------------------------------------
G-------------------------------------------------------
D-x-x-x-x-x--x-x-x-x-x--x-x-x-x-x--x-x-x-x-x------------
A-x-x-x-x-x--x-x-x-x-x--x-x-x-x-x--x-x-x-x-x--(all x2)--
D-x-x-x-x-x--x-x-x-x-x--x-x-x-x-x--x-x-x-x-x------------

(continued)
e-------------------------------------------------------
B-------------------------------------------------------
G-------------------------------------------------------
D-0h3-0--(5)------0h3-0--(5)------0h3-0--(5)------0h3-0-
A-0h3-0--(5)-(x3)-0h3-0--(5)-(x6)-0h3-0--(5)-(x6)-0h3-0-
D-0h3-0--(5)------0h3-0--(5)------0h3-0--(5)------0h3-0-


Chorus
e-------------------------------------------------------
B-------------------------------------------------------
G-------------------------------------------------------
D-0h6-0h6-0---0h6-0h6-0---0h3-0-------------------------
A-0h6-0h6-0---0h6-0h6-0---0h3-0-------------------------
D-0h6-0h6-0---0h6-0h6-0---0h3-0-------------------------

Bass-Verse
G-------------------------------------------------------
D-------------------------------------------------------
A-------------------------------------------------------
D-0h6-0h6-0---0h6-0h6-0---0h3-0-------------------------
("I don't want you...")

Verse 1
e-------------------------------------------------------
B-------------------------------------------------------
G-------------------------------------------------------
D-x-x-x-x-x--x--x-x-x-x-x--x--x-x-x---------------------
A-x-x-x-x-x--x--x-x-x-x-x--x--x-x-x---------------------
D-x-x-x-x-x--x--x-x-x-x-x--x--x-x-x---------------------
("The beautiful people...")


Pre-Chorus A chord diagramA augmentedA (Guitar 1)
e-------------------------------------------------------
B-------------------------------------------------------
G-7---6---5---4----7---6---5---4------------------------
D-x---x---x---x----x---x---x---x------------------------
A-5---4---3---2----5---4---3---2------------------------
D-------------------------------------------------------
("There's a time to discriminate...")


Pre-Chorus A chord diagramBB (Synthasizer for Guitar 2)
e----17-17-17---13-17-17-17------17-17-17---15-17-17-17-
B-15--------------------------17------------------------
G-------------------------------------------------------
D-------------------------------------------------------
A-------------------------------------------------------
D-------------------------------------------------------


Verse 2A (Guitar 1)
e-------------------------------------------------------
B-------------------------------------------------------
G-------------------------------------------------------
D-x-x-x-3-0-------x-x-x-3-0-----------------------------
A-x-x-x-3-0-------x-x-x-3-0-----------------------------
D-x-x-x-3-0-------x-x-x-3-0-----------------------------


Verse 2B (Guitar 2)
e-----10^---------10^-----------23^---------------------
B-------------------------------------------------------
G-7----------7------------------------------------------
D-------------------------------------------------------
A-------------------------------------------------------
D-------------------------------------------------------


Outro A chord diagramA augmentedA (Guitar 1)
e-------------------------------------------------------
B-------------------------------------------------------
G-| (x2)  |-----------| (x2)  |-------------------------
D-0h6-0h6-0---0h3-0---0h6-0h6-0---6-5-3-0---------------
A-0h6-0h6-0---0h3-0---0h6-0h6-0---6-5-3-0---------------
D-0h6-0h6-0---0h3-0---0h6-0h6-0---6-5-3-0---------------


Outro A chord diagramBB
e-----10^----23^----13----17-16---15--------------------
B-------------------------------------------------------
G-7-----------------------------------------------------
D-------------------------------------------------------
A-------------------------------------------------------
D-------------------------------------------------------


Intro

Chorus
Bass-Verse
Bass-Verse, Verse 1

Pre-Chorus A, A chord diagramBB

Chorus

Verse 2A, 2B

Chorus

Pre-Chorus A, A chord diagramBB

Chorus

Verse 2A

Chorus

Outro A, A chord diagramBB

Other versions of The Beautiful People

The beautiful people acosticChords
The beautiful people acousticTabs

Almost there ...

Sign in to get your own page with links to favourite songs and more. You are just one click away...

Login with Facebook Login with Google