Log in

One click and you are in

Login with Facebook Login with Google

Why sign up and log in

Guitar Tabs Explorer
Marilyn Manson chords for The beautiful people acostic

The Beautiful People Acostic chords by Marilyn Manson

Marilyn Manson chords for The beautiful people acostic

Guitar chords

Album: -
As tabbed by Joe Muggah

Dropped A chord diagramD MajorD and tuned down 1/2 step
Intro
eb--------------------------------------------------------
Bb--------------------------------------------------------
Gb--------------------------------------------------------
Db--0-----3-----0-----6-----0-----------------------------
Ab--0-----3-----0-----6-----0-----------------------------
Db--0-----3-----0-----6-----0-----------------------------


Verse
eb--------------------------------------------------------
Bb--------------------------------------------------------
Gb--------------------------------------------------------
Db--0-6-0-6-0---0-6-0-6-0---0-3-0-------------------------
Ab--0-6-0-6-0---0-6-0-6-0---0-3-0-------------------------
Db--0-6-0-6-0---0-6-0-6-0---0-3-0-------------------------
("And I don't want ya...")


Pre-Chorus
eb--------------------------------------------------------
Bb--------------------------------------------------------
Gb--7-7-7-7-7-7--6-6-6-6-6-6--5-5-5-5-5-5-5--4-4-4-4-4-4--
Db--7-7-7-7-7-7--6-6-6-6-6-6--5-5-5-5-5-5-5--4-4-4-4-4-4--
Ab--5-5-5-5-5-5--4-4-4-4-4-4--3-3-3-3-3-3-3--2-2-2-2-2-2--
Db--------------------------------------------------------
("There's a time to discriminate...")


Bridge
eb--------------------------------------------------------
Bb--------------------------------------------------------
Gb--------------------------------------------------------
Db--x-x-x-x--x---x-x-x-x--x---0-3-0-----------------------
Ab--x-x-x-x--x---x-x-x-x--x---0-3-0-----------------------
Db--x-x-x-x--x---x-x-x-x--x---0-3-0-----------------------


Outro
eb--------------------------------------------------------
Bb--------------------------------------------------------
Gb--------------------------------------------------------
Db--0--3--0----0----0-------------------------------------
Ab--0--3--0----0----0-------------------------------------
Db--0--3--0----0----0-------------------------------------


Intro

Verse

Pre-Chorus

Verse

Pre-Chorus

Verse

Bridge

Outro

This song is essentially the same as the album version
except it's tuned down and played on an acoustic.

Almost there ...

Sign in to get your own page with links to favourite songs and more. You are just one click away...

Login with Facebook Login with Google